Wavves

Million Enemies

Wavves

tabs

by  JOV-CORREA

save to print version add songbook text version e-mail correct tuner
chordsukulelecavacokeyboardtabbassdrumsharmonicaflute Guitar Pro
close

there isn't a video lesson for this song

chords

Million Enemies

	  		
Solo comes right after Chorus 2 

Solo 
E|-----------------------------------------------------------------------------19-14-19-12-14-14-| 
B|-7-7-7-7-7s10---7--7-7-7-7s10-9-8---7-7-7-7-7s10b12-12-12-12-12-10-10-10---7-------------------| 
G|-----------------------------------------------------------------------------------------------| 
D|-----------------------------------------------------------------------------------------------| 
A|-----------------------------------------------------------------------------------------------| 
E|-----------------------------------------------------------------------------------------------| 

E|-14b17s7s10s2--4-| 
B|---------------6-| 
G|---------------6-| 
D|---------------6-| 
A|---------------4-| 
E|---------------4-| 

************************************ 

| b  Bend 

************************************ 
		  

See also:

tabs Blink 182 - Always tabs Green Day - The Simpsons Theme tabs Green Day - Boulevard Of Broken Dreams (ver. 2) tabs Green Day - Boulevard of Broken Dreams tabs Green Day - She tabs Blink 182 - Stay Together For The Kids (ver. 4)
e-chords

Other versions:

tabs Wavves - Million Enemies
auto scroll beats size up size down change color hide chords drawings
tab show chords e-chords YouTube Clip e-chords hide all tabs e-chords go to top tab

share