Washya

home > Washya

Gently Tab

Washya

Difficulty: nolevelnolevel

by marcnagel

tuner correct add songbook print version text version save to e-mail
chordsukulelecavacokeyboardtabbassdrumsharmonicsflute Guitar Pro
chords

Gently

Key:  B More
Gently Key F#F#
Gently Key GG
Gently Key G#G#
Gently Key AA(one step down)
Gently Key A#A#(half step down)
Gently Key BB(original key)
Gently Key CC(half step up)
Gently Key C#C#(one step up)
Gently Key DD
Gently Key D#D#
Gently Key EE
Gently Key FF
  		------------------------------------------------------------------------------- 
                            Gently - Washya 
------------------------------------------------------------------------------- 
Tabbed by: 
E-mail: 

Tuning: Drop B (BF#BEG#C#) 
intro 
B|-------------------------------------------------------------| 
F#|------------------------------------------------------------| 
B|-------------------------------------------------------------| 
E|-------------------------------------------------------------| 
G#|------00------00------00--------777888--------------------00| 
C#|-1b/\-00-1b/\-00-1b/\-00-555444--------555444333111--1b/\-00| 

B|------------------------------------------------------------| 
F#|-----------------------------------------------------------| 
B|------------------------------------------------------------| 
E|------------------------------------------------------------| 
G#|------00------00------00-666555888666--------------------00| 
C#|-1b/\-00-1b/\-00-1b/\-00--------------555444666444--1b/\-00| 

B|---------------------------------------------| 
F#|--------------------------------------------| 
B|---------------------------------------------| 
E|---------------------------------------------| 
G#|-----5-4-------5-4-------5-4---333222-------| 
C#|-1b-/5-4-0-1b-/5-4-0-1b-/5-4-0--------444555| 

Verses 
B|-------------------------------------------------------------------------------------------------| 
F#|------------------------------------------------------------------------------------------------| 
B|-------------------------------------------------------------------------------------------------| 
E|-------------------------------------------------------------------------------------------------| 
G#|-1-00--0-1-0-1-00-636363-----1-00--0-1-0-1-00--5-4-747474-----1-00--0-1-0-1-00--6-5-858585-8-7\\| 
C#|-1-00--0-1-0-1-00--------65--1-00--0-1-0-1-00--5-4--------76--1-00--0-1-0-1-00--6-5--------8-7\\| 

Chorus 
B|--------------------------------------------------------------------------------------------| 
F#|-------------------------------------------------------------------------------------------| 
B|-------------------------------------10-10-10-10-10/14-14-14-14-14\13-13-13-13/-------------| 
E|--------------------------------------------------------------------------------------------| 
G#|-55555555-11111111--444555/88888888-8--8--8--8--8/-12-12-12-12-12\11-11-11-11/-10-8-7-55555| 
C#|-55555555-11111111--444555/88888888--------------------------------------------10-8-7-55555| 



************************************ 

| /   slide up 
| \   slide down 
| h   hammer-on 
| p   pull-off 
| ~   vibrato 
| +   harmonic 
| x   Mute note 
| b   Bend 
| pb  Pre-bend 
| br  Bend release 
| pbr Pre-bend release 
| brb Bend release bend 

************************************ 
	  

Search Paypal
auto scroll beats size up size down change color hide chords drawings
tab show chords e-chords YouTube Clip e-chords hide all tabs e-chords go to top tab