Warren Barfield

10 Hours

Warren Barfield

tabs Advanced advanced

by  YOUAYANG09

save to print version add songbook text version e-mail correct tuner
chordsukulelecavacokeyboardtabbassdrumsharmonicaflute Guitar Pro
close

there isn't a video lesson for this song

chords

10 Hours

Key:  Bm More
10 Hours Key F#mF#m
10 Hours Key GmGm
10 Hours Key G#mG#m
10 Hours Key AmAm(one step down)
10 Hours Key A#mA#m(half step down)
10 Hours Key BmBm(original key)
10 Hours Key CmCm(half step up)
10 Hours Key C#mC#m(one step up)
10 Hours Key DmDm
10 Hours Key D#mD#m
10 Hours Key EmEm
10 Hours Key FmFm
	  		main part 
e-2-----2---3-3p2-----2---2---3-3 
B---3-3---3-------3-3---3---3---- 
G-------------------------------- 
D-------------------------------- 
A-2---0-------------2---0-------- 
E---------3-----------------3---- 

Pre-Chorus 
e-3-0---0---0---0---0---0-------0 
B-----3---2---3---2---3---2-2h3-- 
G-------------------------------- 
D-2---2---2---0---0---0---------- 
A-------------------------------- 
E-------------------------------- 

Chorus 

.... doesn't really follow a consistent patter... 
maybe next time if i have more time. 
		  

See also:

tabs Vineyard - Senhor Te Quero - Intro tabs Jars of Clay - Overjoyed tabs Bleach - Wonderful tabs Christian Hymm - Amazing Grace tabs Caedmon's Call - April Showers tabs Jeremy Camp - I Still Believe
e-chords

Other versions:

tabs Warren Barfield - 10 Hours
auto scroll beats size up size down change color hide chords drawings
tab show chords e-chords YouTube Clip e-chords hide all tabs e-chords go to top tab

share