Walk Off The Earth

home > Walk Off The Earth

Closer Tab

Walk Off The Earth

Difficulty: nolevelnolevel

by tamamoreira

tuner correct add songbook print version text version save to e-mail
chordsukulelecavacokeyboardtabbassdrumsharmonicsflute Guitar Pro
chords

Closer

  		  
Intro 
    1 e + a 2 e + a 3 e + a 4 e + a   1 e + a 2 e + a 3 e + a 4 e + a 
    V                                 V 
e|--0~------------------------------|-0~-------------------------------| 
B|--0~----------12*---------12*-----|-0~----------12*---------12*------| 
G|--0~------12*-----------------12*-|-0~------12*-----------------12*--|   
D|--10~-----------------0~----------|-2~------------------0~-----------| 
A|--10~-----------------0~----------|-2~------------------0~-----------| 
D|--10~-----------------0~----------|-2~------------------0~-----------|(x2) 


verse 1 
    1 e + a 2 e + a 3 e + a 4 e + a   1 e + a 2 e + a 3 e + a 4 e + a 
e|-------X--------------------------|------X---------------------------| 
B|--------X-------------------------|-------X--------------------------| 
G|---------X----X-------------------|--------X----X--------------------|   
D|--10------X-----X---X-12*-12*-----|-2-------X-----X---X-12*-12*-12*--| 
A|--10------X-----X---X-12*-12*-----|-2-------X-----X---X-12*-12*-12*--| 
D|--10------------X---X-12*-12*-----|-2-------------X---X-12*-12*-12*--|(x4) 


Pre-Chorus 
    1 e + a 2 e + a 3 e  + a 4 e + a   1 e + a 2 e + a 3 e + a 4 e + a 
    V       V     ^   ^  V   V         V       V     ^   ^ V   V   V 
e|-----------------------------------|----------------------------------| 
B|-----------------------------------|----------------------------------| 
G|-----------------------------------|----------------------------------|  
D|--10------10----10--10-0---0-------|-2-------2-----2---2-0---0---0----| 
A|--10------10----10--10-0---0-------|-2-------2-----2---2-0---0---0----| 
D|--10------10----10--10-0---0-------|-2-------2-----2---2-0---0---0----|(x4) 
  ..................................PM.................................. 


Chorus 
    1 e + a 2 e + a 3 e + a 4 e + a   1 e + a 2 e + a 3 e + a 4 e + a 
    V                   V             V                   V 
e|--0~--------------X---0~----------|-0~--------------X---0~-----------| 
B|--0~--------------X---0~----------|-0~--------------X---0~-----------| 
G|--0~--------------X---0~----------|-0~--------------X---0~-----------|   
D|--10~-------------X---0~----------|-2~--------------X---0~-----------| 
A|--10~-------------X---0~----------|-2~--------------X---0~-----------| 
D|--10~-------------X---0~----------|-2~--------------X---0~-----------|(x3) 

    1 e + a 2 e + a 3 e + a 4 e + a   1 e + a 2 e + a 3 e + a 4 e + a 
    V                   V             V 
e|--0~--------------X---0~----------|-0--------------------------------| 
B|--0~--------------X---0~----------|-0--------------------------------| 
G|--0~--------------X---0~----------|-0--------------------------------| 
D|--10~-------------X---0~----------|-2--------------------------------| 
A|--10~-------------X---0~----------|-2--------------------------------| 
D|--10~-------------X---0~----------|-2--------------------------------| 


Interlude 
    1 e + a 2 e + a 3 e + a 4 e + a   1 e + a 2 e + a 3 e + a 4 e + a 
    V                   V   V   V     V                   V   V   V 
e|----------------------------------|----------------------------------| 
B|----------------------------------|----------------------------------| 
G|----------------------------------|----------------------------------|   
D|--10------------------0---0---0---|-2-------------------0---0---0----| 
A|--10------------------0---0---0---|-2-------------------0---0---0----| 
D|--10------------------0---0---0---|-2-------------------0---0---0----|(x2) 


verse 2 
    1 e + a 2 e + a 3 e + a 4 e + a   1 e + a 2 e + a 3 e + a 4 e + a 
e|-------X--------------------------|------X---------------------------| 
B|--------X-------------------------|-------X--------------------------| 
G|---------X----X-------------------|--------X----X--------------------|   
D|--10------X-----X---X-12*-12*-----|-2-------X-----X---X-12*-12*-12*--| 
A|--10------X-----X---X-12*-12*-----|-2-------X-----X---X-12*-12*-12*--| 
D|--10------------X---X-12*-12*-----|-2-------------X---X-12*-12*-12*--|(x4) 


Pre-Chorus 
    1 e + a 2 e + a 3 e  + a 4 e + a   1 e + a 2 e + a 3 e + a 4 e + a 
    V       V     ^   ^  V   V         V       V     ^   ^ V   V   V 
e|-----------------------------------|----------------------------------| 
B|-----------------------------------|----------------------------------| 
G|-----------------------------------|----------------------------------|   
D|--10------10----10--10-0---0-------|-2-------2-----2---2-0---0---0----| 
A|--10------10----10--10-0---0-------|-2-------2-----2---2-0---0---0----| 
D|--10------10----10--10-0---0-------|-2-------2-----2---2-0---0---0----|(x4) 
  ..................................PM.................................. 


Chorus 2 
    1 e + a 2 e + a 3 e + a 4 e + a   1 e + a 2 e + a 3 e + a 4 e + a 
    V                   V             V                   V 
e|--0~--------------X---0~----------|-0~--------------X---0~-----------| 
B|--0~--------------X---0~----------|-0~--------------X---0~-----------| 
G|--0~--------------X---0~----------|-0~--------------X---0~-----------|   
D|--10~-------------X---0~----------|-2~--------------X---0~-----------| 
A|--10~-------------X---0~----------|-2~--------------X---0~-----------| 
D|--10~-------------X---0~----------|-2~--------------X---0~-----------|(x3) 

    1 e + a 2 e + a 3 e + a 4 e + a   1 e + a 2 e + a 3 e + a 4 e + a 
    V                   V             V   V   V   V   V 
e|--0~--------------X---0~----------|----------------------------------| 
B|--0~--------------X---0~----------|----------------------------------| 
G|--0~--------------X---0~----------|----------------------------------| 
D|--10~-------------X---0~----------|-2---2---2---2---2----------------| 
A|--10~-------------X---0~----------|-2---2---2---2---2----------------| 
D|--10~-------------X---0~----------|-2---2---2---2---2----------------| 


Interlude 
    1 e + a 2 e + a 3 e + a 4 e + a   1 e + a 2 e + a 3 e + a 4 e + a 
    V                   V   V   V     V                   V   V   V 
e|----------------------------------|----------------------------------| 
B|----------------------------------|----------------------------------| 
G|----------------------------------|----------------------------------|   
D|--10------------------0---0---0---|-2-------------------0---0---0----| 
A|--10------------------0---0---0---|-2-------------------0---0---0----| 
D|--10------------------0---0---0---|-2-------------------0---0---0----|(x2) 


Bridge 
    1 e + a 2 e + a 3 e + a 4 e + a   1 e + a 2 e + a 3 e + a 4 e + a 
    V                   V             V                   V 
e|--0~--------------X---0~----------|-0~--------------X---0~-----------| 
B|--0~--------------X---0~----------|-0~--------------X---0~-----------| 
G|--0~--------------X---0~----------|-0~--------------X---0~-----------|   
D|--10~-------------X---0~----------|-2~--------------X---0~-----------| 
A|--10~-------------X---0~----------|-2~--------------X---0~-----------| 
D|--10~-------------X---0~----------|-2~--------------X---0~-----------|(x4) 

    1 e + a 2 e + a 3 e + a 4 e + a   1 e + a 2 e + a 3 e + a 4 e + a 
    V   V   V   V   V   V   V   V     V   V   V   V   V   V   V   V    
e|----------------------------------|----------------------------------| 
B|----------------------------------|----------------------------------| 
G|----------------------------------|----------------------------------|   
D|--10----------10------0---0---0---|-2-----------2-------0---0---0----| 
A|--10--10--10--10--10--0---0---0---|-2---2---2---2---2---0---0---0----| 
D|--10--10--10--10--10--0---0---0---|-2---2---2---2---2---0---0---0----|(x3) 
  .................................PM.................................. 

    1 e + a 2 e + a 3 e + a 4 e + a   1 e + a 2 e + a 3 e + a 4 e + a 
    V   V   V   V   V   V   V   V     V   V   V   V   V   V   V   V    
e|----------------------------------|----------------------------------| 
B|----------------------------------|----------------------------------| 
G|----------------------------------|----------------------------------| 
D|--10----------10------0---0---0---|-2---2---2---2---2---2---x---x----| 
A|--10--10--10--10--10--0---0---0---|-2---2---2---2---2---2---x---x----| 
D|--10--10--10--10--10--0---0---0---|-2---2---2---2---2---2---x---x----| 
  ................PM................  


Final Chorus 
    1 e + a 2 e + a 3 e  + a 4 e + a   1 e + a 2 e + a 3 e + a 4 e + a 
    V       V     ^   ^  V   V         V       V     ^   ^ V   V    
e|--0-------0-----0---0--0---0-------|-0-------0-----0---0-0---0--------| 
B|--0-------0-----0---0--0---0-------|-0-------0-----0---0-0---0--------| 
G|--0-------0-----0---0--0---0-------|-0-------0-----0---0-0---0--------|   
D|--10------10----10--10-0---0-------|-2-------2-----2---2-0---0--------| 
A|--10------10----10--10-0---0-------|-2-------2-----2---2-0---0--------| 
D|--10------10----10--10-0---0-------|-2-------2-----2---2-0---0--------|(x4) 


Outro 
    1 e + a 2 e + a 3 e + a 4 e + a   1 e + a 2 e + a 3 e + a 4 e + a 
    V                                 V 
e|--0~------------------------------|-0~-------------------------------| 
B|--0~----------12*---------12*-----|-0~----------12*---------12*------| 
G|--0~------12*-----------------12*-|-0~------12*-----------------12*--|   
D|--10~-----------------0~----------|-2~------------------0~-----------| 
A|--10~-----------------0~----------|-2~------------------0~-----------| 
D|--10~-----------------0~----------|-2~------------------0~-----------|(x2) 


************************************ 

| ~   Let it ring 
| *   Tap harmonic 
| X   Percussion (see note 2 above) 
| x   Mute string 
| V   Strum down 
| ^   Strum up 
| PM  Palm mute 

************************************ 
	  

Search Paypal
auto scroll beats size up size down change color hide chords drawings
tab show chords e-chords YouTube Clip e-chords hide all tabs e-chords go to top tab