Waldir Azevedo

Brasileirinho

Waldir Azevedo

tabs Beginner beginner

save to print version add songbook text version e-mail correct tuner
chordsukulelecavacokeyboardtabbassdrumsharmonicaflute Guitar Pro
close

there isn't a video lesson for this song

chords

Brasileirinho

Year: 2009 - Album: Brasileirinho

	  		

Parte A

  


d|0-5-9--0-5-9-0-5-9-0-0-9-9-9-9-8-7-6-5-------------------------|  
B|---------------------------------------------------------------|  
G|---------------------------------------------------------------|  
D|---------------------------------------------------------------|  


d|9-9-9-9-0-4-5-0-8-9-0-4-5-0-8-9-0-7-8-0-4-5-0-7-8-0-4-5-0-7-8-0| 
B|---------------------------------------------------------------|  
G|---------------------------------------------------------------|  
D|---------------------------------------------------------------|  


d|8-9-0-4-5-0-8-9-0-4-5-0-9-9-9-9-8-7-6-5------------------------|  
B|---------------------------------------------------------------|  
G|---------------------------------------------------------------|  
D|---------------------------------------------------------------|  


d|-0-2-3-4-3-2-0-2-3-4-3-2-0-2-3-4-3-2-0-5-4-2-0-5-4-2-0-5-4-2-0-|  
B|---------------------------------------------------------------|  
G|---------------------------------------------------------------|  
D|---------------------------------------------------------------|  


d|-1-----------------0-2-4-2-0---0-2-0---------------------------|  
B|---0-------------1-----------2-------2-1-0---------------------|  
G|-----2-0-------2-----------------------------------------------|  
D|---------4-0-4-------------------------------------------------|  


d|-0-2-3-4--0-2-3-4--0-2-3-4-3-2-0-5--0-2-4-5--0-2-4-5-4-2-0-4--0| 
B|---------------------------------------------------------------|  
G|---------------------------------------------------------------|  
D|---------------------------------------------------------------|  

d|-2-3-4--2-4-2-0------------------------------------------------|  
B|----------------1-0--------------------------------------------| 
G|--------------------2-0----------------------------------------|  
D|---------------------------------------------------------------|  

Parte B

d|-------------------------------------1--0---0-1-0---0-1--0-----|  
B|------------------------------------------1-------1---------1--|  
G|---0-2-3-2-0---0-2-3-2-0---0-2-3-2-0---------------------------|  
D|-0-----------0-----------0-------------------------------------| 


d|--------------0-1-0-1-0-1-0-1-0-3-2-1-------------5-4-3-2-1-0--|  
B|------------1----------------------------1-2-3----3-3-3-2-1-0-2|  
G|2---------2----------------------------3----------------------0|  
D|---4--0-4-----------------------------------------------------2|  


d|-1-1-1-1-0---------------0-1-0-1-0-3-2-1-----------------------|  
B|-----------1-----------1--------------------1-2-3--------------|  
G|-------------2-------2--------------------3--------------------|  
D|---------------4-0-4-------------------------------------------|  


d|-------------------------------------1--0---0-1-0---0-1-0------|  
B|------------------------------------------1-------1-------1----|  
G|---0-2-3-2-0---0-2-3-2-0---0-2-3-2-0------------------------2--|  
D|-0-----------0-----------0------------------------------------4|  



d|---------0-1-0-1-0-1-0-1-0-3-2-1--0----5-----5-----5-----5---0-|  
B|-------1--------------------------0----7b8---7b8---7b8---7b8---|  
G|-----2----------------------------0--------5-----5-----5-------|  
D|-0-4------------------------------3----------------------------|  


d|------------------------------------------------1--0-----------|  
B|---------------------------------------------------------------|  
G|---0-2-3-2-0---0-2-3-2-0-------0-2-3-2-0-----2--------0--------|  
D|-0-----------0------------3--2------------4--------------------|  

Repetir a Parte A

Final 

d|---------------------------------0-0---0---0-2-4-5--4--2--0--5-|  
B|-----------------0-0---0---0-1-2-----2---2-------0--0--0--0--0-|  
G|-0-0---0---0-2-3-----3---3-------------------------------------|  
D|-----4---4-----------------------------------------------------|  


d|-4--2--0--------------------------0---0---0---5--5-------------|  
B|-0--0--0--------------------------0---0---0---3--3-------------|  
G|----------------------------------0---0---0---4--4-------------|  
D|----------5--4--2--0--5--4--2--0--0---0---0---5--5-------------|
		  

See also:

tabs Luiz Bonfá - Manhã de Carnaval tabs Simone - Noite Feliz (Solo) tabs João Bosco e Vinícius - Memória tabs Waldir Azevedo - Pedacinhos do Céu tabs Fagner - Borbulhas de Amor tabs Gonzaguinha - O Que é O Que é (É a vida)
e-chords

Other versions:

tabs Baby do Brasil - Brasileirinho tabs Waldir Azevedo - Brasileirinho tabs João Pernambuco - Brasileirinho tabs Waldir Azevedo - Brasileirinho (solinho inteiro) tabs Waldir Azevedo - Brasileirinho (ver. 2) tabs Waldir Azevedo - Brasileirinho (versão 2)
auto scroll beats size up size down change color hide chords drawings
tab show chords e-chords YouTube Clip e-chords hide all tabs e-chords go to top tab

share