Vulfpeck

home > Vulfpeck

Mr Finish Line Tab

Vulfpeck

Difficulty: nolevelnolevel

by IronPower4Ever

tuner correct add songbook print version text version save to e-mail
chordsukulelecavacokeyboardtabbassdrumsharmonicsflute Guitar Pro
chords

Mr Finish Line

	  Chorus 
E|--9---9---9---9----------9--------------------------------------------| 
B|--10--10--10--10--10/12-----12--10-----10--10--10--10--9--9--9--9-----| 
G|---------------------------------------11--11--11--11--9--9--9--9-----| 
D|----------------------------------------------------------------------| 
A|----------------------------------------------------------------------| 
E|----------------------------------------------------------------------| x4 
Mr. Finish Line 
Mr. Finish Line 
Mr. Finish Line 
He's Mr. Finish Line 

verse 1 
E|----------9----9-----------------------------------------9----9-------------------12-9-------| 
B|----10h12---12---12p10-------9-9-9----10-9-9-------10h12---12---12p10-------9-9-9------12-10-| 
G|-----------------------11----9-9-9----11-9-9--------------------------11----9-9-9------------| 
D|---------------------------------------------------------------------------------------------| 
A|---------------------------------------------------------------------------------------------| 
E|---------------------------------------------------------------------------------------------| 
  Step 1: Cut out the coco oil then you        Step 2: B-Bring it to a boil then you 

E|----------9----9-----------------------------------7----9-----12----12----------------12-----| 
B|----10h12---12---12p10-------9-9-9----10-9-9-------7----9-----12----12----15-15-15-15-15-----| 
G|-----------------------11----9-9-9----11-9-9-------7----9-----12----13----13-13-13-13-13-----| 
D|---------------------------------------------------9----11----13----14----14-14-14-14-14-----| 
A|---------------------------------------------------------------------------------------------| 
E|---------------------------------------------------------------------------------------------| 
  Step 3: C-Cool it in the soil    Then you fire roast it, freeze and toast it, open up and shine 

Chorus 
E|--9---9---9---9----------9--------------------------------------------| 
B|--10--10--10--10--10/12-----12--10-----10--10--10--10--9--9--9--9-----| 
G|---------------------------------------11--11--11--11--9--9--9--9-----| 
D|----------------------------------------------------------------------| 
A|----------------------------------------------------------------------| 
E|----------------------------------------------------------------------| x4 
He's Mr. Finish Line, Mister, Mister (I won't rest) 
And he's right on time, Mister, Mister ('til I top my personal best) 
'Cause when the lights go out 
He keeps America online 
He's Mr. Finish Line 
Finish Line, Finish Line, Finish Line 

verse 2 
E|----------9----9-----------------------------------------9----9-------------------12-9-------| 
B|----10h12---12---12p10-------9-9-9----10-9-9-------10h12---12---12p10-------9-9-9------12-10-| 
G|-----------------------11----9-9-9----11-9-9--------------------------11----9-9-9------------| 
D|---------------------------------------------------------------------------------------------| 
A|---------------------------------------------------------------------------------------------| 
E|---------------------------------------------------------------------------------------------| 
  Step 4: B-Big Berkey on the mantle then you  Step 5: Push ups at Occidental 'till you 

E|----------9----9-----------------------------------7----9-----12----12----------------12-----| 
B|----10h12---12---12p10-------9-9-9----10-9-9-------7----9-----12----12----15-15-15-15-15-----| 
G|-----------------------11----9-9-9----11-9-9-------7----9-----12----13----13-13-13-13-13-----| 
D|---------------------------------------------------9----11----13----14----14-14-14-14-14-----| 
A|---------------------------------------------------------------------------------------------| 
E|---------------------------------------------------------------------------------------------| 
 Step 6: You unlock your full potential You sleep and dream it, and press that steam it, open up and shine 

Chorus 
E|--9---9---9---9----------9--------------------------------------------| 
B|--10--10--10--10--10/12-----12--10-----10--10--10--10--9--9--9--9-----| 
G|---------------------------------------11--11--11--11--9--9--9--9-----| 
D|----------------------------------------------------------------------| 
A|----------------------------------------------------------------------| 
E|----------------------------------------------------------------------| x4 
He's Mr. Finish Line, Mister, Mister (I won't rest) 
And he's right on time, Mister, Mister ('til I top my personal best) 
'Cause when the lights go out 
He keeps America online 
He's Mr. Finish Line 
Finish Line, Finish Line, Finish Line 

Bridge 
D                            C# 
 I used to need to feed the appestat-o meter 
F#m                             B 
   Now I'm satisfied and I'm a regular bean eater 
D  E    A  
 Oh yeah 

Interlude 
E|--9---9---9---9----------9--------------------------------------------| 
B|--10--10--10--10--10/12-----12--10-----10--10--10--10--9--9--9--9-----| 
G|---------------------------------------11--11--11--11--9--9--9--9-----| 
D|----------------------------------------------------------------------| 
A|----------------------------------------------------------------------| 
E|----------------------------------------------------------------------| x4 
A feline save by Stratton at keeper. He rolls it out to Katzman, the spiritual leader and sweeper.  
A quick pass to Hucal. Great team ball over to Wong.  
Working their way up to Dart, the General, a middie everyone can get behind.  
He's flanked by Dosik and Goss.  
Stanley is streaking! Stanley with one to beat! Stanley with none to beat! Goal goal goal! 

Outro 
E|--9---9---9---9----------9--------------------------------------------| 
B|--10--10--10--10--10/12-----12--10-----10--10--10--10--9--9--9--9-----| 
G|---------------------------------------11--11--11--11--9--9--9--9-----| 
D|----------------------------------------------------------------------| 
A|----------------------------------------------------------------------| 
E|----------------------------------------------------------------------| x4 
Finish Line is straight ahead 
(You feel worse before ya feel better) 
Finish Line is straight ahead 
(Pritikin, Ornish, Fuhrman and Greger) 
Finish Line is straight ahead 
(You feel worse before ya feel better) 
Finish Line is straight ahead 
(Pritikin, Ornish, Fuhrman and Greger) 

Keyboard Solo 
E|--9---9---9---9----------9--------------------------------------------| 
B|--10--10--10--10--10/12-----12--10-----10--10--10--10--9--9--9--9-----| 
G|---------------------------------------11--11--11--11--9--9--9--9-----| 
D|----------------------------------------------------------------------| 
A|----------------------------------------------------------------------| 
E|----------------------------------------------------------------------| x4 
	  

there isn't a video lesson for this song

request
Full key step upFull key step up
Half key step upHalf key step up
Half key step downHalf key step down
Full key step downFull key step down
Search
auto scroll beats size up size down change color hide chords drawings
tab show chords e-chords YouTube Clip e-chords hide all tabs e-chords go to top tab