Vixen

Love Made Me

Vixen

tabs Easy easy

by  SABRJOAO

save to print version add songbook text version e-mail correct tuner
chordsukulelecavacokeyboardtabbassdrumsharmonicaflute Guitar Pro
close

there isn't a video lesson for this song

chords

Love Made Me

	  		E|--------------------------------------------------------------| 
B|--------------------------------------------------------------| 
G|---------2---------------------------2------------------------| 
D|--4------2---------2-----------4-----2--------2---------------| 
A|--4------0---------2-----------4-----0--------2---------------| 
E|--2----------------0-----------2--------------0---------------| 

E|-------------------------------------------------------------| 
B|-------------------------------------------------------------| 
G|------------------------------------14-----------------------| 
D|--14h16-16-16-16-16~--14h16p14----------16--16~--------------| 
A|---------------------------------16--------------------------| 
E|-------------------------------------------------------------| 

E|------------------------------------------------------------| 
B|------------------------------------------------------------| 
G|----------------------14-16b------14------------------------| 
D|--14------------------------------------16-16~--------------| 
A|------16p14-------------------------------------------------| 
E|---------------14~------------------------------------------| 

(verso) 
E|-------------------------------------------------------| 
B|-------------------------------------------------------| 
G|-------------------------------------------------------| 
D|-7-----9------11-----7-------2---2-------9-----9-------| 
A|-5-5-5-7-7-7-7-9-9-9-5-5-5-5-0-0-0-0-0-0-7-7-7-7-7-7-7-| 
E|-------------------------------------------------------| 

E|-----------------------------------------------------| 
B|-----------------------------------------------------| 
G|-----------------------------------------------------| 
D|-7-----9------11-----7-------9---9-------9---9-9-9-9-| 
A|-5-5-5-7-7-7-7-9-9-9-5-5-5-5-7-7-7-7-7-7-7-7-7-7-7-7-| 
E|-----------------------------------------------------| 

E|-------------------------------------------------------| 
B|-------------------------------------------------------| 
G|-------------------------------------------------------| 
D|-7-----9------11-----6-----7----11-----9-----9---------| 
A|-5-5-5-7-7-7-7-9-9-9-4-4-4-5-5-5-9-9-9-7-7-7-7-7-7-7-7-| 
E|-------------------------------------------------------| 

E|-----------------------------------------------------| 
B|-----------------------------------------------------| 
G|-----------------------------------------------------| 
D|-7-----9------11-----7-------9---9-------9---9-9-9-9-| 
A|-5-5-5-7-7-7-7-9-9-9-5-5-5-5-7-7-7-7-7-7-7-7-7-7-7-7-| 
E|-----------------------------------------------------| 

(Refrão) 
E|-------------------------------------------------------------| 
B|--------3--------------------------3-----------9-------------| 
G|--------2-----11------9------------2----11-------9-----------| 
D|--4-----0-----11------9-----4------0----11----------11-9-----| 
A|--4------------9------7-----4------------9-------------------| 
E|--2-------------------------2--------------------------------| 

E|--------------------------------------------------------| 
B|-------3------------------------------------------------| 
G|-------2----11-----9----2---------------6---------------| 
D|--4----0----11-----9----2---------------6---------------| 
A|--4----------9-----7----0-0-0-0-0-0-0-0-4-4-4-4-4-4-4-4-| 
E|--2-----------------------------------------------------| 

(pre-verso) 
E|------------------------------------------------| 
B|-17--17--17--17--17-----------------------------| 
G|-16b-16b-16b-16b-16b-14h16p14-16p14------14~----| 
D|-------------------------------------16---------| 
A|------------------------------------------------| 
E|------------------------------------------------| 

E|--------------------------------------14-----14----14------| 
B|-------------------14-17--17b--17b-------------------------| 
G|----------14h16--------------------------16b---16b---16-14-| 
D|-14h16-----------------------------------------------------| 
A|-----------------------------------------------------------| 
E|-----------------------------------------------------------| 

(verso) 
E|-------------------------------------------------------| 
B|-------------------------------------------------------| 
G|-------------------------------------------------------| 
D|-7-----9------11-----7-------2---2-------9---9---------| 
A|-5-5-5-7-7-7-7-9-9-9-5-5-5-5-0-0-0-0-0-0-7-7-7-7-7-7-7-| 
E|-------------------------------------------------------| 

E|-----------------------------------------------------| 
B|-----------------------------------------------------| 
G|-----------------------------------------------------| 
D|-7-----9------11-----7-------9---9-------9---9-9-9-9-| 
A|-5-5-5-7-7-7-7-9-9-9-5-5-5-5-7-7-7-7-7-7-7-7-7-7-7-7-| 
E|-----------------------------------------------------| 

(Refrão) 
E|-------------------------------------------------------------| 
B|--------3--------------------------3-----------9-------------| 
G|--------2-----11-----9-------------2----11-------9-----------| 
D|--4-----0-----11-----9------4------0----11----------11-9-----| 
A|--4------------9-----7------4------------9-------------------| 
E|--2-------------------------2--------------------------------| 

E|--------------------------------------------------------| 
B|-------3------------------------------------------------| 
G|-------2----11-----9----2---------------6---------------| 
D|--4----0----11-----9----2---------------6---------------| 
A|--4----------9-----7----0-0-0-0-0-0-0-0-4-4-4-4-4-4-4-4-| 
E|--2-----------------------------------------------------| 

(ponte) 
E|----------------------------------------------------| 
B|----------------------------------------------------| 
G|----------------------------------------------------| 
D|-7-----9------11-----9-------7-----9-------9--11--9-| 
A|-5-5-5-7-7-7-7-9-9-9-7-7-7-7-5-5-5-7-7-7-7-7-7-9--7-| 
E|----------------------------------------------------| 

E|------------------------------------------------------| 
B|------------------------------------------------------| 
G|------------------------------------------------------| 
D|-7-----9----11-----9-----7-----9---9----11-11--11--11-| 
A|-5-5-5-7-7-7-9-9-9-7-7-7-5-5-5-7-7-7-7-7-9--9---9--9--| 
E|------------------------------------------------------| 

(solo) 

This is my favourite Jan solo. 
It is pretty tough to get down but sounds great. 

E|-14h17p14---------14h17p14--------------14-----17b~-| 
B|-----------17p14------------17p14-17b------14-------| 
G|----------------------------------------------------| 
D|----------------------------------------------------| 
A|----------------------------------------------------| 
E|----------------------------------------------------| 

E|-14-------------17-14---------------------------------| 
B|----14-17b-------------17-14--------------------------| 
G|------------------------------16-14----14--14h16-16b~-| 
D|------------------------------------16----------------| 
A|------------------------------------------------------| 
E|------------------------------------------------------| 

E|-----------------------------------17b----14---------| 
B|-14--------------------17------14--------------17-17~| 
G|-----16p14-16~--14 16b----16b~-----------------------| 
D|-----------------------------------------------------| 
A|-----------------------------------------------------| 
E|-----------------------------------------------------| 

E|--------------------------------------------------------| 
B|---------------------------------------------14h15p14---| 
G|--------------------------------------14h16-------------| 
D|-----------------14h16p14-----14-16---------------------| 
A|---------14-16-------------16---------------------------| 
E|-14-17--------------------------------------------------| 

E|-------------14h17p14-19b~-------| 
B|-----14h17-----------------------| 
G|-16------------------------------| 
D|---------------------------------| 
A|---------------------------------| 
E|---------------------------------| 

(Refrão) 

E|-------------------------------------------------------------| 
B|--------3--------------------------3-----------9-------------| 
G|--------2-----11-----9-------------2----11-------9-----------| 
D|--4-----0-----11-----9------4------0----11----------11-9-----| 
A|--4------------9-----7------4------------9-------------------| 
E|--2-------------------------2--------------------------------| 

E|------------------------------------------------------| 
B|-------3----------------------------------------------| 
G|-------2----11----9---2---------------6---------------| 
D|--4----0----11----9---2---------------6---------------| 
A|--4----------9----7---0-0-0-0-0-0-0-0-4-4-4-4-4-4-4-4-| 
E|--2---------------------------------------------------| 

E|-------------------------------------------------------------| 
B|--------3--------------------------3-----------9-------------| 
G|--------2-----11-----9-------------2----11-------9-----------| 
D|--4-----0-----11-----9------4------0----11----------11-9-----| 
A|--4------------9-----7------4------------9-------------------| 
E|--2-------------------------2--------------------------------| 
		  

See also:

tabs Cyanogaster - Virgem tabs Jose Gonzales - Hand on your heart tabs Hinos Avulsos Ccb - Seguro Estou.. (em Menor) Solo/tab tabs Pimentas do Reino - Pensando em você tabs Rayssa Goulart - Queimem As Bruxas tabs Sérgio Eduardo Amaral - Metamórfica
e-chords

Other versions:

tabs Vixen - Love Made Me
auto scroll beats size up size down change color hide chords drawings
tab show chords e-chords YouTube Clip e-chords hide all tabs e-chords go to top tab

share