Vinnie Moore

From Now On

Vinnie Moore

tabs Advanced advanced

by  LINEKERS

save to print version add songbook text version e-mail correct tuner
chordsukulelecavacokeyboardtabbassdrumsharmonicaflute Guitar Pro
close

there isn't a video lesson for this song

chords

From Now On

	  		Intro: 

 
E|-------------------------||------4--4---------------||--0--0--0--0----- 
B|-------------------------||--45--5--5--5--4h5p4-----||--0--0--0-------- 
G|---1--1--1--2--1h2p1-----||--4---4--4--4--4-4-4--4--||--2--2--2-------- 
D|---2--2--2--2--2-2-2--2--||--h6--6--6--6------------||--2-------------- 
A|---2--------2--2---------||--4----------------------||--0-------------- 
E|---0--------0------------||-------------------------||----------------- 
 

 
E|---------||--------------------||------4--4---------------||--0--0----- 
B|---0-----||--------------------||--45--5--5--5--4h5p4-----||--0--0----- 
G|------2--||--1--1--1--2--1-----||--4---4--4--4--4-4-4--4--||--2--2----- 
D|---------||--2--2--2--2--2--2--||--h6--6--6--6------------||--2-------- 
A|---------||--2--------2--2-----||--4----------------------||--0-------- 
E|---------||--0--------0--------||-------------------------||----------- 
 

 
E|---0--0--------||--------------------||--------------------||---------- 
B|---0-----0-----||--------------------||--4--4--4--5--4-----||---------- 
G|---2--------2--||--1--1--1--2--1-----||--4--4--4--4--4--4--||---------- 
D|---------------||--2--2--2--2--2--2--||--4--------4--4-----||--9------- 
A|---------------||--2--------2--2-----||--2-----------------||--9h11---- 
E|---------------||--0--------0--------||--------------------||---------- 
 

 
E|---------------------------||--------------------------||-------------- 
B|---------------------------||--------------------------||-------------- 
G|---9--/119--------9--/119--||--------9--91/19--8--9--||--------9----- 
D|---9--919--------9--919--||--------9--/119119-----9--||--------9----- 
A|------------9h11-----------||--9h11--------------------||--9h11-------- 
E|---------------------------||--------------------------||-------------- 
 

 
E|--------------------------||--12--12--12--12--9------------------------ 
B|--------------------------||--12--12--12--12--9h12p9--9---9------------ 
G|---9-/119--------9--919--||--------------------------11-----11--9----- 
D|---9/-19--------9--/119--||------------------------------------------- 
A|-----------9h11-----------||------------------------------------------- 
E|--------------------------||------------------------------------------- 
 

 
E|---||------------------------------------------------------------------ 
B|---||------------------9--9/129--9/129------9------------------------ 
G|---||--9/11--9--9--11---------------------11-----9--9--------11^------- 
D|---||--------------------------------------------------11p9------------ 
A|---||------------------------------------------------------------------ 
E|---||------------------------------------------------------------------ 
 

 
E|-----------------------||---------------------------------------------- 
B|------------9--12--13--||--12^--9--9-----------10--9h10p9-------------- 
G|---11--11^-------------||----------------11p9--------------11p9--9----- 
D|-----------------------||---------------------------------------------- 
A|-----------------------||---------------------------------------------- 
E|-----------------------||---------------------------------------------- 
 

 
E|---------||-----------------------------||----------------------------- 
B|---------||-----------------------------||----------------------------- 
G|---------||--11^--11^--13--11--9--9/11--||----------------------------- 
D|---11p9--||-----------------------------||----------------------------- 
A|---------||-----------------------------||----------------------------- 
E|---------||-----------------------------||----------------------------- 
 

    Play main theme again with these fills         Chorus 
 
E|--------------------||------------------------||------19--19--17------- 
B|--------------------||------------------------||--12------------------- 
G|---11^--11--9--11^--||--6---------------------||----------------------- 
D|--------------------||-----9------------------||----------------------- 
A|--------------------||--------9--7--9^--7--9--||----------------------- 
E|--------------------||------------------------||----------------------- 
 

 
E|---16--14-------------------||--12--12------12--14--14/16--14---------- 
B|-----------12/1412--14p12--||----------12---------------------12------ 
G|----------------------------||----------------------------------------- 
D|----------------------------||----------------------------------------- 
A|----------------------------||----------------------------------------- 
E|----------------------------||----------------------------------------- 
 

 
E|---||--19--19--17--16--14------------10--10--10--10--10--9--7--5------- 
B|---||----------------------12/1412------------------------------------ 
G|---||--------------------------------7---7---7---7---7---6--4--2------- 
D|---||------------------------------------------------------------------ 
A|---||------------------------------------------------------------------ 
E|---||------------------------------------------------------------------ 
 

 
E|---||-------------------------------||--------------------------------- 
B|---||--10--10--10--10--10--9--7--5--||--------------------------------- 
G|---||-------------------------------||--------------------------------- 
D|---||--7---7---7---7---7---6--4--2--||--------------------------------- 
A|---||-------------------------------||--------------------------------- 
E|---||-------------------------------||--------------------------------- 
 

    Play main theme with this fill                slow release 
 
E|----------------------------------------------------------------------- 
B|-------------------------------------------------10^p9----------------- 
G|---119--9--------11^--11--11^p9--11^-----11^p9---------11p9----------- 
D|------------11p9----------------------------------------------11p9----- 
A|----------------------------------------------------------------------- 
E|----------------------------------------------------------------------- 
 

                Play Chorus, then 
 
E|-----------||--12--12--12--12--12--------14--14--14--14--14-----10----- 
B|-----------||---------------------------------------------------------- 
G|-----------||--9---9---9---9---9---------11--11--11--11--11-----7------ 
D|-----------||---------------------------------------------------------- 
A|---97--7--||---------------------------------------------------------- 
E|-----------||---------------------------------------------------------- 
 

 
E|---10--10--10--10--9--7--5----------------------------------||--------- 
B|----------------------------10--10--10--10--10--9--7--5--5--||--------- 
G|---7---7---7---7---6--4--2----------------------------------||*-------- 
D|----------------------------7---7---7---7---7---6--4--2--2--||*-------- 
A|------------------------------------------------------------||--------- 
E|------------------------------------------------------------||--------- 
 

 
E|----------------------------------------------------10--10--10--10----- 
B|----------------------------------------------------------------------- 
G|---9--9--11--13--1113-----9--9--11--13--1/13--------7---7---7---7------ 
D|----------------------------------------------------------------------- 
A|---7--7--9---11--9/11-----7--7--9---11--9-11--------------------------- 
E|----------------------------------------------------------------------- 
 

 
E|---1/10-----10--10--9--7-----5--5---||--10--10--10--10--10-----9--7---- 
B|------------------------------------||--------------------------------- 
G|---9-7------7---7---6--4-----2--2--*||--7---7---7---7---7------6--4---- 
D|-----------------------------------*||--------------------------------- 
A|------------------------------------||--------------------------------- 
E|------------------------------------||--------------------------------- 
 

 
E|---5------------------------------------------------||----------------- 
B|---------10--10--10--10-----10--12--12--12--12--12--||----------------- 
G|---2------------------------------------------------||----------------- 
D|---------7---7---7---7------7---9---9---9---9---9---||----------------- 
A|----------------------------------------------------||----------------- 
E|----------------------------------------------------||----------------- 
 

    Guitar solo, very, very easy 
 
E|----------------------------------------------------------------------- 
B|-------------------------------------------9h12--12-----9------9------- 
G|---11^---------9--11--9/119/119/119---------------------11---------- 
D|-----------11---------------------------------------------------------- 
A|----------------------------------------------------------------------- 
E|----------------------------------------------------------------------- 
 

 
E|----------------------||----------------------------------------------- 
B|----------------------||--9-----12^--12^--12^-----9-----10^--10p9------ 
G|-------9--11--11^--9--||-----9-----------------------9----------------- 
D|---11-----------------||----------------------------------------------- 
A|----------------------||----------------------------------------------- 
E|----------------------||----------------------------------------------- 
 

 
E|------------------||--------------------------------------||----------- 
B|------------------||-----------------------12-------------||----------- 
G|---11p9--9--------||--11^p9--11^---------------11^p9--11--||--13------- 
D|------------11p9--||--------------------------------------||----------- 
A|------------------||--------------------------------------||----------- 
E|------------------||--------------------------------------||----------- 
 

 
E|-------14^-----14p12--14p12^--12--12--------9-----9-----9-----12------- 
B|---12------------------------------------9-----9-----9-----9----------- 
G|----------------------------------------------------------------------- 
D|----------------------------------------------------------------------- 
A|----------------------------------------------------------------------- 
E|----------------------------------------------------------------------- 
 

 
E|---12--12--||---------------------------------------------------------- 
B|-----------||--12-------------9h10--9--9---9---9------9---------------- 
G|-----------||------11^--9-----9-----9--11--11--9------9--9------------- 
D|-----------||-------------------------------------11------------------- 
A|-----------||-----------------------------------------------9^p7------- 
E|-----------||---------------------------------------------------------- 
 

                                     Repeat Chorus and then ending 
 
E|--------------------------------||--14--14--14--14--14-----12--12------ 
B|--------------------------------||------------------------------------- 
G|--------------------------------||--11--11--11--11--11-----9---9------- 
D|---------------9--------9/119--||------------------------------------- 
A|---7--7--9/11-------------------||------------------------------------- 
E|--------------------------------||------------------------------------- 
 

                   Ritardando 
E|---12--12--12-----10--10--10--10--10-----9--7--5-----/7--||------------ 
B|---------------------------------------------------------||------------ 
G|---9---9---9------7---7---7---7---7------6--4--2-----24--||------------ 
D|---------------------------------------------------------||------------ 
A|---------------------------------------------------------||------------ 
E|---------------------------------------------------------||------------ 
		  

auto scroll beats size up size down change color hide chords drawings
tab show chords e-chords YouTube Clip e-chords hide all tabs e-chords go to top tab

share