Vineyard

Senhor Te Quero - Intro Tab

Vineyard

Difficulty: BeginnerBeginner

by Drake+Bell

tuner correct add songbook print version text version save to e-mail
chordsukulelecavacokeyboardtabbassdrumsharmonicsflute Guitar Pro
close

there isn't a video lesson for this song

request
chords

Senhor Te Quero - Intro

  		 
 
 
        G         G         C9 
      
E | ---3-3-------3-3-------3-3------- 
B | ---3-3-------3-3-------3-3------- 
G | ---0-0-------0-0-------0-0------- 
D | ---0-0--2h0--0-0--0h2--2-2--0h2-- 
A | ---2-2-------2-2-------3-3------- 
E | ---3-3-------3-3----------------- 
 
       C9        Em         D 
 
E | ---3---------0----------2----- 
B | ---3------1--0---0-1-3--3---0- 
G | ---0--0-2----0----------2--2-2 
D | ---2---------2---------------- 
A | ---3---------2---------------- 
E | -------------0---------------- 
 
       C9        C9 
 
E | ---333-22222-333-22222--...... 
B | ---333-33333-333-33333--...... 
G | ---000-00000-000-00000--...... 
D | ---222-00000-222-00000--...... 
A | ---333-33333-333-33333--...... 
E | ------------------------...... 

	  

Full key step upFull key step up
Half key step upHalf key step up
Half key step downHalf key step down
Full key step downFull key step down
Search Paypal
auto scroll beats size up size down change color hide chords drawings
tab show chords e-chords YouTube Clip e-chords hide all tabs e-chords go to top tab

share with facebook