Ville Valo

Summer Wine

Ville Valo

tabs Beginner beginner

by  VELHO

save to print version add songbook text version e-mail correct tuner
chordsukulelecavacokeyboardtabbassdrumsharmonicaflute Guitar Pro
close

there isn't a video lesson for this song

chords

Summer Wine

	  		e |--------------0-----------------------0-------------------------0-----------------------0-----| 
B|--------0-----------0-----------0----------0-------------0-----------0-----------0----------0--| 
G|-----0----0-----0-----0-----0----0----0-----0-------0----0-----0-----0-----0----0----0-----0---| 
D|-----------------------------------------------------------------------------------------------| 
A|--2-----------------------2-------------------------2-----------------------2------------------| 
E |----------------------------------------------------------------------------------------------| 


      Starawberries,          Cherries                   And an angels kiss in  spring 

e |--------------0-----------------------0-------------------------0-----------------------0----| 
B|--------0-----------0-----------0----------0------------1-----------1-----------1----------1--| 
G|-----0----0-----0-----0-----0----0----0-----0------2----2-----2-----2-----2----2----2-----2---| 
D|----------------------------------------------------------------------------------------------| 
A|--2-----------------------2-----------------------0------------------------0------------------| 
E |---------------------------------------------------------------------------------------------| 

       My summer            wine is really             made from all these  things 
e |--------------0-----------------------0-------------------------0-----------------------0-----| 
B|--------0-----------0-----------0----------0-------------1-----------1-----------1----------1--| 
G|-----0----0-----0-----0-----0----0----0-----0-------2----2-----2-----2-----2----2----2-----2---| 
D|-----------------------------------------------------------------------------------------------| 
A|--2-----------------------2------------------------0------------------------0------------------| 
E |----------------------------------------------------------------------------------------------| 

e |--------------0-----------------------0-------------------------0-----------------------0-----| 
B|--------0-----------0-----------0----------0-------------0-----------0-----------0----------0--| 
G|-----0----0-----0-----0-----0----0----0-----0-------0----0-----0-----0-----0----0----0-----0---| 
D|-----------------------------------------------------------------------------------------------| 
A|--2-----------------------2-------------------------2-----------------------2------------------| 
E |----------------------------------------------------------------------------------------------| 

       I walked in              town on silver     spurs that jingled           to 
e |--------------0-----------------------0------------------------0-----------------------0------| 
B|--------0-----------0-----------0----------0-------------1-----------1-----------1----------1--| 
G|-----0----0-----0-----0-----0----0----0-----0------2----2-----2-----2-----2----2----2-----2----| 
D|-----------------------------------------------------------------------------------------------| 
A|--2-----------------------2-----------------------0------------------------0-------------------| 
E |----------------------------------------------------------------------------------------------| 

       A song that              I had only                 sang for just a            few 
e |--------------0-----------------------0-------------------------0-----------------------0----| 
B|--------0-----------0-----------0----------0------------1-----------1-----------1----------1--| 
G|-----0----0-----0-----0-----0----0----0-----0-------2----2-----2-----2-----2----2----2-----2--| 
D|----------------------------------------------------------------------------------------------| 
A|--2-----------------------2------------------------0------------------------0-----------------| 
E |---------------------------------------------------------------------------------------------| 

       She saw my              silver spurs and       said let?s pass some   time 

e |--------------0-----------------------0-------------------------0-----------------------0----| 
B|--------1-----------1-----------1----------1------------1-----------1-----------1----------1--| 
G|-----0----0-----0-----0-----0----0----0-----0-------2----2-----2-----2-----2----2----2-----2--| 
D|----------------------------------------------------------------------------------------------| 
A|--3-----------------------3-----------------------0-------------------------0-----------------| 
E |---------------------------------------------------------------------------------------------| 

      And I will                 give to you             Summer                       wine 
e |--------------0-----------------------0-------------------------0-----------------------0-----| 
B|--------1-----------1-----------1----------1-------------0-----------0-----------0----------0--| 
G|-----0----0-----0-----0-----0----0----0-----0-------0----0-----0-----0-----0----0----0-----0---| 
D|-----------------------------------------------------------------------------------------------| 
A|--3-----------------------3-----------------------2-------------------------2------------------| 
E |----------------------------------------------------------------------------------------------| 

        Ohhhh-Oh                      summer              wine 
e |-----------------------------------------------------------------0-----------------------0-------| 
B|-----------------------------------------------------------0-----------0-----------0----------0---| 
G|--------------------------------------------------------0----0-----0-----0-----0----0----0-----0--| 
D|--------------------------------------------------------------------------------------------------| 
A||---2------------------------------------------------2-----------------------2--------------------| 
E |-------------------------------------------------------------------------------------------------| 

      Starawberries,          Cherries                   And an angels kiss in  spring 
e |--------------0-----------------------0-------------------------0-----------------------0----| 
B|--------0-----------0-----------0----------0------------1-----------1-----------1----------1--| 
G|-----0----0-----0-----0-----0----0----0-----0------2----2-----2-----2-----2----2----2-----2---| 
D|----------------------------------------------------------------------------------------------| 
A|--2-----------------------2-----------------------0------------------------0------------------| 
E |---------------------------------------------------------------------------------------------| 

      My summer             wine is really             Made from all these  things 
e |--------------0-----------------------0-------------------------0-----------------------0-----| 
B|--------0-----------0-----------0----------0-------------1-----------1-----------1----------1--| 
G|-----0----0-----0-----0-----0----0----0-----0-------2----2-----2-----2-----2----2----2-----2---| 
D|-----------------------------------------------------------------------------------------------| 
A|--2-----------------------2------------------------0------------------------0------------------| 
E |----------------------------------------------------------------------------------------------| 

       Take off  your         silver spurs and           help me pass the      time 
e |--------------2-----------------------2-------------------------0-----------------------0-----| 
B|--------1-----------1-----------1----------1-------------1-----------1-----------1----------1--| 
G|-----2----2-----2-----2-----2----2----2-----2-------2----2-----2-----2-----2----2----2-----2---| 
D|-----------------------------------------------------------------------------------------------| 
A|--0-----------------------0-------------------------0-----------------------0------------------| 
E |----------------------------------------------------------------------------------------------| 

       And I will                give to you             Summer                       wine 
e |--------------0-----------------------0-------------------------0-----------------------0-----| 
B|--------1-----------1-----------1----------1-------------1-----------1-----------1----------1--| 
G|-----0----0-----0-----0-----0----0----0-----0-------2----2-----2-----2-----2----2----2-----2---| 
D|-----------------------------------------------------------------------------------------------| 
A|--3-----------------------3-----------------------0-------------------------0------------------| 
E |----------------------------------------------------------------------------------------------| 

        Ohhhh-Oh                                  summer  wine 
e |-----------------------------------------------------------------0-----------------------0-------| 
B|-----------------------------------------------------------0-----------0-----------0----------0---| 
G|--------------------------------------------------------0----0-----0-----0-----0----0----0-----0--| 
D|--------------------------------------------------------------------------------------------------| 
A||---2------------------------------------------------2-----------------------2--------------------| 
E |-------------------------------------------------------------------------------------------------| 

     My eyes grew             heavy and my        lips the could not        speak 
e |--------------0-----------------------0------------------------0-----------------------0------| 
B|--------0-----------0-----------0----------0-------------1-----------1-----------1----------1--| 
G|-----0----0-----0-----0-----0----0----0-----0------2----2-----2-----2-----2----2----2-----2----| 
D|-----------------------------------------------------------------------------------------------| 
A|--2-----------------------2-----------------------0------------------------0-------------------| 
E |----------------------------------------------------------------------------------------------| 

      I tried to                   get up but I               couldn?t find my     feet 
e |--------------0-----------------------0-------------------------0-----------------------0----| 
B|--------0-----------0-----------0----------0------------1-----------1-----------1----------1--| 
G|-----0----0-----0-----0-----0----0----0-----0-------2----2-----2-----2-----2----2----2-----2--| 
D|----------------------------------------------------------------------------------------------| 
A|--2-----------------------2------------------------0------------------------0-----------------| 
E |---------------------------------------------------------------------------------------------| 


       She                 reassured me with an       unfamiliar                    line 
e |--------------0-----------------------0-------------------------0-----------------------0----| 
B|--------1-----------1-----------1----------1------------1-----------1-----------1----------1--| 
G|-----0----0-----0-----0-----0----0----0-----0-------2----2-----2-----2-----2----2----2-----2--| 
D|----------------------------------------------------------------------------------------------| 
A|--3-----------------------3-----------------------0-------------------------0-----------------| 
E |---------------------------------------------------------------------------------------------| 

      And then she            gave to me              more summer             wine 
e |--------------0-----------------------0-------------------------0-----------------------0-----| 
B|--------1-----------1-----------1----------1-------------0-----------0-----------0----------0--| 
G|-----0----0-----0-----0-----0----0----0-----0-------0----0-----0-----0-----0----0----0-----0---| 
D|-----------------------------------------------------------------------------------------------| 
A|--3-----------------------3-----------------------2-------------------------2------------------| 
E |----------------------------------------------------------------------------------------------| 

        Ohhhh-Oh                          summer         wine 
e |-----------------------------------------------------------------0-----------------------0-------| 
B|-----------------------------------------------------------0-----------0-----------0----------0---| 
G|--------------------------------------------------------0----0-----0-----0-----0----0----0-----0--| 
D|--------------------------------------------------------------------------------------------------| 
A||---2------------------------------------------------2-----------------------2--------------------| 
E |-------------------------------------------------------------------------------------------------| 

      Starawberries,          Cherries                   And an angels kiss in  spring 
e |--------------0-----------------------0-------------------------0-----------------------0----| 
B|--------0-----------0-----------0----------0------------1-----------1-----------1----------1--| 
G|-----0----0-----0-----0-----0----0----0-----0------2----2-----2-----2-----2----2----2-----2---| 
D|----------------------------------------------------------------------------------------------| 
A|--2-----------------------2-----------------------0------------------------0------------------| 
E |---------------------------------------------------------------------------------------------| 

      My summer             wine is really             Made from all these  things 
e |--------------0-----------------------0-------------------------0-----------------------0-----| 
B|--------0-----------0-----------0----------0-------------1-----------1-----------1----------1--| 
G|-----0----0-----0-----0-----0----0----0-----0-------2----2-----2-----2-----2----2----2-----2---| 
D|-----------------------------------------------------------------------------------------------| 
A|--2-----------------------2------------------------0------------------------0------------------| 
E |----------------------------------------------------------------------------------------------| 

       Take off  your         silver spurs and           help me pass the      time 
e |--------------2-----------------------2-------------------------0-----------------------0-----| 
B|--------1-----------1-----------1----------1-------------1-----------1-----------1----------1--| 
G|-----2----2-----2-----2-----2----2----2-----2-------2----2-----2-----2-----2----2----2-----2---| 
D|-----------------------------------------------------------------------------------------------| 
A|--0-----------------------0-------------------------0-----------------------0------------------| 
E |----------------------------------------------------------------------------------------------| 

       And I will                give to you             Summer                       wine 
e |--------------0-----------------------0-------------------------0-----------------------0-----| 
B|--------1-----------1-----------1----------1-------------1-----------1-----------1----------1--| 
G|-----0----0-----0-----0-----0----0----0-----0-------2----2-----2-----2-----2----2----2-----2---| 
D|-----------------------------------------------------------------------------------------------| 
A|--3-----------------------3-----------------------0-------------------------0------------------| 
E |----------------------------------------------------------------------------------------------| 

        Mmm-mm                                  summer  wine 
e |-----------------------------------------------------------------0-----------------------0-------| 
B|-----------------------------------------------------------0-----------0-----------0----------0---| 
G|--------------------------------------------------------0----0-----0-----0-----0----0----0-----0--| 
D|--------------------------------------------------------------------------------------------------| 
A||---2------------------------------------------------2-----------------------2--------------------| 
E |-------------------------------------------------------------------------------------------------| 


      When I woke            up the sun was        shining in my            eyes 
e |--------------0-----------------------0------------------------0-----------------------0------| 
B|--------0-----------0-----------0----------0-------------1-----------1-----------1----------1--| 
G|-----0----0-----0-----0-----0----0----0-----0------2----2-----2-----2-----2----2----2-----2----| 
D|-----------------------------------------------------------------------------------------------| 
A|--2-----------------------2-----------------------0------------------------0-------------------| 
E |----------------------------------------------------------------------------------------------| 

       My silver             spurs were gone, my     head felt twice its      size 
e |--------------0-----------------------0-------------------------0-----------------------0----| 
B|--------0-----------0-----------0----------0------------1-----------1-----------1----------1--| 
G|-----0----0-----0-----0-----0----0----0-----0-------2----2-----2-----2-----2----2----2-----2--| 
D|----------------------------------------------------------------------------------------------| 
A|--2-----------------------2------------------------0------------------------0-----------------| 
E |---------------------------------------------------------------------------------------------| 


      She took my             silver spurs, a          dollar and a                dime 
e |--------------0-----------------------0-------------------------0-----------------------0----| 
B|--------1-----------1-----------1----------1------------1-----------1-----------1----------1--| 
G|-----0----0-----0-----0-----0----0----0-----0-------2----2-----2-----2-----2----2----2-----2--| 
D|----------------------------------------------------------------------------------------------| 
A|--3-----------------------3-----------------------0-------------------------0-----------------| 
E |---------------------------------------------------------------------------------------------| 

     And left me               cravin' for                more summer              wine 

e |--------------0-----------------------0-------------------------0-----------------------0-----| 
B|--------1-----------1-----------1----------1-------------0-----------0-----------0----------0--| 
G|-----0----0-----0-----0-----0----0----0-----0-------0----0-----0-----0-----0----0----0-----0---| 
D|-----------------------------------------------------------------------------------------------| 
A|--3-----------------------3-----------------------2-------------------------2------------------| 
E |----------------------------------------------------------------------------------------------| 

        Ohhhh-Oh                          summer         wine 
e |-----------------------------------------------------------------0-----------------------0-------| 
B|-----------------------------------------------------------0-----------0-----------0----------0---| 
G|--------------------------------------------------------0----0-----0-----0-----0----0----0-----0--| 
D|--------------------------------------------------------------------------------------------------| 
A||---2------------------------------------------------2-----------------------2--------------------| 
E |-------------------------------------------------------------------------------------------------| 

      Starawberries,          Cherries                   And an angels kiss in  spring 
e |--------------0-----------------------0-------------------------0-----------------------0----| 
B|--------0-----------0-----------0----------0------------1-----------1-----------1----------1--| 
G|-----0----0-----0-----0-----0----0----0-----0------2----2-----2-----2-----2----2----2-----2---| 
D|----------------------------------------------------------------------------------------------| 
A|--2-----------------------2-----------------------0------------------------0------------------| 
E |---------------------------------------------------------------------------------------------| 

      My summer             wine is really             Made from all these  things 
e |--------------0-----------------------0-------------------------0-----------------------0-----| 
B|--------0-----------0-----------0----------0-------------1-----------1-----------1----------1--| 
G|-----0----0-----0-----0-----0----0----0-----0-------2----2-----2-----2-----2----2----2-----2---| 
D|-----------------------------------------------------------------------------------------------| 
A|--2-----------------------2------------------------0------------------------0------------------| 
E |----------------------------------------------------------------------------------------------| 

       Take off  your         silver spurs and           help me pass the      time 
e |--------------2-----------------------2-------------------------0-----------------------0-----| 
B|--------1-----------1-----------1----------1-------------1-----------1-----------1----------1--| 
G|-----2----2-----2-----2-----2----2----2-----2-------2----2-----2-----2-----2----2----2-----2---| 
D|-----------------------------------------------------------------------------------------------| 
A|--0-----------------------0-------------------------0-----------------------0------------------| 
E |----------------------------------------------------------------------------------------------| 

       And I will                give to you             Summer                       wine 
e |--------------0-----------------------0-------------------------0-----------------------0-----| 
B|--------1-----------1-----------1----------1-------------1-----------1-----------1----------1--| 
G|-----0----0-----0-----0-----0----0----0-----0-------2----2-----2-----2-----2----2----2-----2---| 
D|-----------------------------------------------------------------------------------------------| 
A|--3-----------------------3-----------------------0-------------------------0------------------| 
E |----------------------------------------------------------------------------------------------| 

        Ohhhh-Oh                          summer         wine 
e |------| 
B|-------| 
G|-------| 
D|-------| 
A||---2--| 
E |------| 
		  

auto scroll beats size up size down change color hide chords drawings
tab show chords e-chords YouTube Clip e-chords hide all tabs e-chords go to top tab