Villa Lobos

Estudo Nš1

Villa Lobos

tabs

by  TEUSALVES

save to print version add songbook text version e-mail correct tuner
chordsukulelecavacokeyboardtabbassdrumsharmonicaflute Guitar Pro
close

there isn't a video lesson for this song

chords

Estudo Nš1

	  		
e|----------------------0------------------------------------------|   
B|----------------0------------------------------------------------|   
G|----------0--------0---------------------------------------------|   
D|----2--------2---------------------------------------------------|   
A|-------2---------------------------------------------------------|   
E|-0---------------------------------------------------------------|   


e|----0------------------------------------------------------------|   
B|-0-------0-------------------------------------------------------|   
G|------0-------0--------------------------------------------------|   
D|-----------2-------2---------------------------------------------|   
A|----------------2------------------------------------------------|   
E|----------------------0------------------------------------------|   


e|---------------0---------7------12-11h12-------------------------|   
B|-----------0---------8-----8-------------11h12-------------------|   
G|-------0-----0---------9-----9-----------------11h12--8h9--------|   
D|---2-----2---------9--------------------------------------8h9~---|   
A|-----2-----------------------------------------------------------|   
E|-0---------------------------------------------------------------|   



e|--------------------------------------------2---2----------------|   
B|---------------------------------------2------2-----2------------|   
G|----------------------------------3-------3-------3------3-------|   
D|-----------------------------4-------4-----------------4------4--|   
A|-9b10-10\--6h7~-----------------4---------------------------4----|   
E|----------------6h7\3-2h3p2-------------------------------------2|   




e|----------------0---------7------hn12--------0-------------------|   
B|------------0---------8-----8---------------0--------------------|   
G|-------0------0---------9-----9------------0---------------------|   
D|---2-----2---------9----------------------4----------------------|   
A|-----2-----------------------------------2-----------------------|   
E|-0--------------------------------------0------------------------|   


		  

auto scroll beats size up size down change color hide chords drawings
tab show chords e-chords YouTube Clip e-chords hide all tabs e-chords go to top tab

share