Viejas Locas

Todo Termino

Viejas Locas

tabs

by  AMAAH

save to print version add songbook text version e-mail correct tuner
chordsukulelecavacokeyboardtabbassdrumsharmonicaflute Guitar Pro
close

there isn't a video lesson for this song

chords

Todo Termino

	  		()   : es estirar la cuerda o bajarla hasta que lo indique el numero q esta dentro 
       del paréntesis. 
^    : levantar cuerda 
...  : hacer una pausa 
.....: pausa mas larga 
/    : arrastrar la cuerda (seria hacer slide) 
s    : slide 
p    : pull off (especie de ligado pero de forma descendente, del puente hacia el clavijero) 
h    : hamer on ( ligado ascendente), del clavijero hacia el puente) 
v    : Vibrato 
Intro: 
   B5                    C#5            (+)           B5 
1)--------------|---------------------|----------|---------------------| 
2)--------------|---------------------|----------|---------------------| 
3)--------------|---------------------|-4-4-4-2-2|---------------------| 
4)-4...-----4-4-|--------6-4----4--6-6|-2-2-2-2-2|4-4-4-4-4-4-4-4-4(pm)| 
5)-2...-2/6-2-2-|2-2/6-2-4-6-4/6-6-4-4|----------|2-2-2-2-2-2-2-4-4(pm)| 
6)--------------|---------------------|----------|---------------------| 

1)12/14^^^^^^----16-16-16-16-----|------------------------|------------- 
2)12/14^^^^^^-16^--^--^--^---^p14|-12/14...-14------------|14..--------- 
3)-------------------------------|-12/14...-14-14(13)-----|14..-14-16-14 
4)-------------------------------|-------------------14...|-----14-16-14 
5)-------------------------------|------------------------|------------- 
6)-------------------------------|------------------------|------------- 

1)--------------| 
2)--------------| 
3)----14-14...--| 
4)-16-14-14...--| 
5)-16-----------| 
6)--------------| 

B5                                                   ACORDES 
nada que ver tengo en este lugar                B5: X 2 4 X X X 
C#5                                            C#5: X 4 6 X X X 
todos son tan bueno todo esta normal           (+): X X 2 4 X X 
(+) 
y yo estoy tan aburrido 
B5 
por que sabes que me canse 
C#5 
que en tu mundo no encanje 
(+)                           B5 
prefiero estar con mis amigos 

PUNTEO 1 
1)---------------------|----------------------------|----------------|- 
2)---------------------|----------------------------|----------------|- 
3)---------------------|--------------4.....--------|----------------|- 
4)-15^^^^^-14^^^12-----|-4.....?6.....2.....-4.....-|-15^...-14-12---|- 
5)----------------14---|-2.....-4.....-------2.....-|--------------14|- 
6)---------------------|----------------------------|----------------| 

no voy hacer el placer 
de una puta con poder 
que me clave los colmillos no 
porque en el barrio etoy mejor                 RIFF 1 
tengo visión tengo amor                1)-------------------------| 
y una vida enloqueciéndome             2)-------------------------| 
                                       3)-------------------------| 
C#5      (+)           B5  riff 1      4)-12^...-9---12^^-9...----| 
espero que lo entiendas                5)-------------------------| 
c#5       (+)                          6)-------------------------| 
ya no vendrás por mi 

porque nena todo termino 
todo termino 
todo termino 
nena todo termino 
todo termino 
todo termino 

PUNTEO 2 

1)------------------|-------------------------|-------------------------- 
2)------------------|-------------------------|-------------------------- 
3)-----9-9-9-9-9----|-------14-14-14----------|----16...---16...---16...- 
4)-7/9^-^-^-^-^-9(8)|-12/14^--^--^--16-14-----|-16^-----16^-----16^------ 
5)------------------|--------------------16...|-------------------------- 
6)------------------|-------------------------|-------------------------- 

1)-----------------------------------|--7-7?-7-7?-7-7?-7-7--7-7|---9-9--- 
2)-----------------------------------|--7-7?-7-7?-7-7?-7-7?-7-7|---9-9--- 
3)14...--------14--------------------|9^---9^---9^---9^---9^---|11^---11^ 
4)14...--12/14---14-14-12------------|-------------------------|--------- 
5)-----------------------14-12?-12-14|-------------------------|--------- 
6)----------------------------14-----|-------------------------|--------- 

1)9-9---9-9---9-9---9-|12...12------------12...12------------|---- 
2)9-9---9-9---9-9---9-|12...12-15-12------12...12-15-12------|---- 
3)---11^---11^---11^--|--------14-12--------------14-12------|---- 
4)--------------------|--------------12...--------------12...|---- 
5)--------------------|--------------------------------------|---- 
6)--------------------|--------------------------------------|---- 

1)------------------| 
2)------------------| 
3)--------11-11-----| 
4)-----7-9?-9--12-9-| 
5)-7h9--------------| 
6)------------------| 

espero que lo entiendas 
ya no vendrás por mi 

PUNTEO 3 
1)---------------------------|-------------------|---------------|----| 
2)---------------------------|-------------------|---------------|----| 
3)---------------------------|-------------------|-8^8-6---------|----| 
4)--------------6-8^p6-8-----|---6-8^p6-8-5/6v...|-------8-8/9v--|-x2-| 
5)---6...---6-8---------6/8v-|6-8----------------|---------------|----| 
6)-9------9------------------|-------------------|---------------|----| 

Después toca estos acordes: B5 C#5 (+) B5  hasta que termina la canción 
Este(riff) es un punteo que se puede hacer dentro de esta base 
1)----------------|----| 
2)----------------|----| 
3)-12^...-9-------|RIFF| 
4)----------12-9--|----| 
5)----------------|----| 
6)----------------|----| 
		  

Full key step upFull key step up
Half key step upHalf key step up
Half key step downHalf key step down
Full key step downFull key step down
auto scroll beats size up size down change color hide chords drawings
tab show chords e-chords YouTube Clip e-chords hide all tabs e-chords go to top tab

share