Vice Squad

Summer Fashion

Vice Squad

tabs

by  ABELAMIN

save to print version add songbook text version e-mail correct tuner
chordsukulelecavacokeyboardtabbassdrumsharmonicaflute Guitar Pro
close

there isn't a video lesson for this song

chords

Summer Fashion

	  		
Intro Riff 1 x3 

e|-------------|--------------| 
B|-------------|--------------| 
G|-------7-----|--------------| 
D|-----8---8---|-----6------5-| 
A|---8-------8-|---6------5---| 
E|-6-----------|-4------3-----| 

Intro Riff 2 x3 

e|-------------| 
B|-------------| 
G|-------7-----| 
D|-----8---8---| 
A|---8-------8-| 
E|-6-----------| 

Intro Riff 3 

e|-------------| 
B|-------------| 
G|-------------| 
D|-8-----------| 
A|-8-----------| 
E|-6-----------| 


Verse x4 

e|----------------|----------------| 
B|----------------|----------------| 
G|----------------|----------------| 
D|----------------|----------------| 
A|--8-8-8-8-8-8-8-|-10-10-10-10-10-| 
E|--6-6-6-6-6-6-6-|-8-8-8-8-8-8-8--| 

Pre-Chorus x7 

e|-----------------------------| 
B|-----------------------------| 
G|-----------------------------| 
D|-----------------------------| 
A|-9-9-9-9-9-9-9--8--8--7-7-7--| 
E|-7-7-7-7-7-7-7--6--6--5-5-5--| 

End of Pre-Chorus 

e|-------------------------------| 
B|-------------------------------| 
G|-------------------------------| 
D|-------------------------------| 
A|-6-6-6-6-6-6-6-6-6-6-6-6-6-6-6-| 
E|-4-4-4-4-4-4-4-4-4-4-4-4-4-4-4-| 


Chorus x3 

e|---------------|-------------| 
B|---------------|-------------| 
G|---------------|-------------| 
D|---------------|-------------| 
A|-8-8-8-8-8-8-8-|-6-6--5-5-5--| 
E|-6-6-6-6-6-6-6-|-4-4--3-3-3--| 

Verse x4 

e|----------------|----------------| 
B|----------------|----------------| 
G|----------------|----------------| 
D|----------------|----------------| 
A|--8-8-8-8-8-8-8-|-10-10-10-10-10-| 
E|--6-6-6-6-6-6-6-|-8-8-8-8-8-8-8--| 

Pre-Chorus x7 

e|-----------------------------| 
B|-----------------------------| 
G|-----------------------------| 
D|-----------------------------| 
A|-9-9-9-9-9-9-9--8--8--7-7-7--| 
E|-7-7-7-7-7-7-7--6--6--5-5-5--| 

End of Pre-Chorus 

e|-------------------------------| 
B|-------------------------------| 
G|-------------------------------| 
D|-------------------------------| 
A|-6-6-6-6-6-6-6-6-6-6-6-6-6-6-6-| 
E|-4-4-4-4-4-4-4-4-4-4-4-4-4-4-4-| 

Chorus x3 

e|---------------|-------------| 
B|---------------|-------------| 
G|---------------|-------------| 
D|---------------|-------------| 
A|-8-8-8-8-8-8-8-|-6-6--5-5-5--| 
E|-6-6-6-6-6-6-6-|-4-4--3-3-3--| 

Verse x4 

e|----------------|----------------| 
B|----------------|----------------| 
G|----------------|----------------| 
D|----------------|----------------| 
A|--8-8-8-8-8-8-8-|-10-10-10-10-10-| 
E|--6-6-6-6-6-6-6-|-8-8-8-8-8-8-8--| 

Bridge 

e|--------|--------|--------|-------------------| 
B|--------|--------|--------|-------------------| 
G|--------|--------|--------|-------------------| 
D|--------|--------|--------|-------------------| 
A|-3------|-3------|-3------|-3--3---3--5--6--7-| 
E|-1------|-1------|-1------|-1--1---1--3--4--5-| 


Pre-Chorus x7 

e|-----------------------------| 
B|-----------------------------| 
G|-----------------------------| 
D|-----------------------------| 
A|-9-9-9-9-9-9-9--8--8--7-7-7--| 
E|-7-7-7-7-7-7-7--6--6--5-5-5--| 

End of Pre-Chorus 

e|-------------------------------| 
B|-------------------------------| 
G|-------------------------------| 
D|-------------------------------| 
A|-6-6-6-6-6-6-6-6-6-6-6-6-6-6-6-| 
E|-4-4-4-4-4-4-4-4-4-4-4-4-4-4-4-| 

Chorus x3 

e|---------------|-------------| 
B|---------------|-------------| 
G|---------------|-------------| 
D|---------------|-------------| 
A|-8-8-8-8-8-8-8-|-6-6--5-5-5--| 
E|-6-6-6-6-6-6-6-|-4-4--3-3-3--| 

Verse x4 

e|----------------|----------------| 
B|----------------|----------------| 
G|----------------|----------------| 
D|----------------|----------------| 
A|--8-8-8-8-8-8-8-|-10-10-10-10-10-| 
E|--6-6-6-6-6-6-6-|-8-8-8-8-8-8-8--| 

Outro 

e|--------|--------|--------|-----------------| 
B|--------|--------|--------|-----------------| 
G|--------|--------|--------|-----------------| 
D|--------|--------|--------|-----------------| 
A|-10-----|-10-----|-10-----|-10-10--10-10-10-| 
E|-8------|-8------|-8------|-8--8---8--8--8--| 


That's All. 
Enjoy and Rate. 
		  

See also:

tabs Deep Purple - Burn tabs Deep Purple - Lazy tabs Deep Purple - Deep Purple - Smoke On The Water tabs Deep Purple - Stormbringer tabs Deep Purple - Demon's Eye tabs Albert Hammond Jr - Holiday
e-chords

Other versions:

tabs Vice Squad - Summer Fashion
auto scroll beats size up size down change color hide chords drawings
tab show chords e-chords YouTube Clip e-chords hide all tabs e-chords go to top tab

share