Versus The World

Ghost In The Bottle

Versus The World

tabs

by  ADALGOMES

save to print version add songbook text version e-mail correct tuner
chordsukulelecavacokeyboardtabbassdrumsharmonicaflute Guitar Pro
close

there isn't a video lesson for this song

chords

Ghost In The Bottle

	  		
INTRO 
eb|---------------------------------------------------------------------------| 
Bb|---------------------------------------------------------------------------| 
Gb|-9~-4~-6~------------------------------------------------------------------| 
Db|-7~-4~-7~------------------------------------------------------------------| 
Ab|-9~-2~-5~------------------------------------------------------------------| 
Db|---------------------------------------------------------------------------| 

VERSE 
eb|---------------------------------------------------------------------------| 
Bb|---------------------------------------------------------------------------| 
Gb|-----9~-----6~-----6~-------xx99-xx99-xx99-xx99-xx66-xx77-xx66-xx77--------| 
Db|---7~-----7~-----7~----(x2)-xxxx-xxxx-xxxx-xxxx-xxxx-xxxx-xxxx-xxxx--(x2)--| 
Ab|-9~-----7~-----5~-----------xx77-xx77-xx77-xx77-xx55-xx55-xx55-xx55--------| 
Db|---------------------------------------------------------------------------| 

PRE CHORUS 
eb|---------------------------------------------------------------------------| 
Bb|---------------------------------------------------------------------------| 
Gb|-6-------7-----------------------------------------------------------------| 
Db|-6-(x16)-7-(x16)-7-------2-------------------------------------------------| 
Ab|-4-------5-------7-(x16)-2-(x16)-------------------------------------------| 
Db|-----------------7-------2-------------------------------------------------| 

CHORUS 
eb|---------------------------------------play twice for----------------------| 
Bb|---------------------------------------second chorus-----------------------| 
Gb|-2-------------------------------------then end with-----------------------| 
Db|-2-(x16)-2-------4------2------0-------the following--0--------------------| 
Ab|-0-------2-(x16)-4-(x8)-2-(x8)-0-(x16)----------------0-(x16)--------------| 
Db|---------2-------4------2------0----------------------0--------------------| 

BRIDGE 
eb|---------------------------------------------------------------------------| 
Bb|---------------------------------------------------------------------------| 
Gb|----9~-------9~------------------------------------------------------------| 
Db|------11~-------9~-(x8)----------------------------------------------------| 
Ab|-12~------12~--------------------------------------------------------------| 
Db|---------------------------------------------------------------------------| 

For the final pre-chorus, palm mute and gradually let up for each chord 

OUTRO 
eb|---------------------------------------------------------------------------| 
Bb|---------------------------------------------------------------------------| 
Gb|-2~------------------------------------------------------------------------| 
Db|-2~-2~-44444444-22222222---------------------------------------------------| 
Ab|-0~-2~-44444444-22222222---------------------------------------------------| 
Db|----2~-44444444-22222222---------------------------------------------------| 
         ........ ........ 
 
		  

See also:

tabs Green Day - Boulevard of brocken dreams tabs Ramones - Blitzkrieg Bop tabs Blink 182 - Going away to college tabs Green Day - Brain Stew tabs Green Day - The Simpsons Theme tabs Blink 182 - What's my age again
e-chords

Other versions:

tabs Versus The World - Ghost In The Bottle
auto scroll beats size up size down change color hide chords drawings
tab show chords e-chords YouTube Clip e-chords hide all tabs e-chords go to top tab

share