Velvet Revolver

Superhuman

Velvet Revolver

tabs Beginner beginner

by  VMEHMERI

save to print version add songbook text version e-mail correct tuner
chordsukulelecavacokeyboardtabbassdrumsharmonicaflute Guitar Pro
close

there isn't a video lesson for this song

chords

Superhuman

Year: 2004 - Album: Contraband

	  		/S/ : slide 
~ : vibrate 
 
INTRO 
E--------------------------------------------------------------------14~~------ 
B-------13-------15-------15--13--------13-------15-13------------------------- 
G------------------------------------------------------------------------------ 
D--12-------12-------12------------12------ 12-------------12------------------ 
A------------------------------------------------------------------------------ 
D------------------------------------------------------------------------------ 
 
VERSE RIFF 
E------------------------------------------------------------------------ 
B------------------------------------------------------------------------ 
G-------5-----7-----7-5------5-----7-5----------------------------------- 
D---0-----0-----0---------0-----0---------0-3--bend slightly------------- 
A------------------------------------------------------------------------ 
D------------------------------------------------------------------------ 
 
PRE-Chorus 
E---------------------------------------------------------------------- 
B---------------------------------------------------------------------- 
G---------------------------------------------------------------------- 
D--6-5-6--5-6----5-3-5--3-5----6-5-6--5-6----5-3-5-3-8-7-6------------- 
A--6-5-6--5-6----5-3-5--3-5----6-5-6--5-6----5-3-5-3-8-7-6------------- 
D--6-5-6--5-6----5-3-5--3-5----6-5-6--5-6----5-3-5-3-8-7-6------------- 
 
 
E---------------------------------------------------------------------- 
B---------------------------------------------------------------------- 
G---------------------------------------------------------------------- 
D--6-5-6--5-6----5-3-5--3-5----6-5-6--5-6------------------------------ 
A--6-5-6--5-6----5-3-5--3-5----6-5-6--5-6------------------------------ 
D--6-5-6--5-6----5-3-5--3-5----6-5-6--5-6---7~~large vibrato----------- 
 
 
SOLO 
E---14-x16---13-x16---14-x12----17-x4---16-x16------14-13-14-13-14-14-13-14-14-13-14-13-14-14--- 
B---15---------15--------15--------------------------------------------------------------------- 
G18-------17------------15-15-15-15-15-15-15-15-15-15-15-15-15-15------------------------------- 
D----------------------------------------------------------------------------------------------- 
A----------------------------------------------------------------------------------------------- 
D----------------------------------------------------------------------------------------------- 
 
E----------------------------------------------------------------------------------------------- 
B----------------------------------------------------------------------------------------------- 
G-------------------------------------------------------17~long vibrato------------------------- 
D---12~---------16-15~----16~---------19-18~---------------------------------------------------- 
A----------------------------------------------------------------------------------------------- 
D----------------------------------------------------------------------------------------------- 
 
Toca o Pre-Chorus de novo, mas com o final diferente: 
E---------------------------------------------------------------------- 
B---------------------------------------------------------------------- 
G---------------------------------------------------------------------- 
D--6-5-6--5-6----5-3-5--3-5----6-5-6--5-6----5-3-5-3-8-7-6------------- 
A--6-5-6--5-6----5-3-5--3-5----6-5-6--5-6----5-3-5-3-8-7-6------------- 
D--6-5-6--5-6----5-3-5--3-5----6-5-6--5-6----5-3-5-3-8-7-6------------- 
 
E----------------------------------------------------------------------- 
B----------------------------------------------------------------------- 
G----------------------------------------------------------------------- 
D--6-5-6--5-6----5-3-5--3-5----6-5-6--5-6----5-3-5--3-3-2-0------------- 
A--6-5-6--5-6----5-3-5--3-5----6-5-6--5-6----5-3-5--3-3-2-0------------- 
D--6-5-6--5-6----5-3-5--3-5----6-5-6--5-6----5-3-5--3-3-2-0------------- 
 
Antes da intro ser repetida toca essa parte: 
 
E------------------------------------- 
B------------------------------------- 
G--7~----7-/S/-10~---9~----8~--------- 
D------------------------------------- 
A--5~----5-/S/-8~-----7~----6~-------- 
D------------------------------------- 
 
O resto da musica eh soh repeticao  
		  

See also:

tabs James Blunt - Cry tabs Iron Butterfly - IronButterfly-in A Gadda Da Vida tabs Stone Sour - Through glass (ver. 2) tabs Candlebox - Far behind tabs Mudvayne - World so cold tabs James Blunt - Wisemen
e-chords

Other versions:

tabs Velvet Revolver - Superhuman
auto scroll beats size up size down change color hide chords drawings
tab show chords e-chords YouTube Clip e-chords hide all tabs e-chords go to top tab

share