Velvet Revolver

Spectacle

Velvet Revolver

tabs

by  CHERNOBYL

save to print version add songbook text version e-mail correct tuner
chordsukulelecavacokeyboardtabbassdrumsharmonicaflute Guitar Pro
close

there isn't a video lesson for this song

chords

Spectacle

Year: 2004 - Album: Contraband

	  		Afinação: Padrão (E A D G B E) 
 
 
Intro 
                                             x4 
|--------|-------------------------------------| 
|--------|-------------------------------------| 
|--------|-------------------------------------| 
|--------|---2-2---2-2---2----2-2---2-2---2----| 
|--------|-3-0-0-3-0-0-3-0--3-0-0-3-0-0-3-0----| 
|--/4hb--|-------------------------------------| 
 
Verso 1: 
 
 Riff A 
|--------------------------------------------| 
|--------------------------------------------| 
|--------------------------------------------| 
|---2-2---2-2---2----2-2---2-2---2--5---3----| 
|-3-0-0-3-0-0-3-0--3-0-0-3-0-0-3-0--5---3----| 
|-----------------------------------3---1----| 
 
Refrão
 
  D5    A5   F5     C5 
|-----------------------| 
|-----------------------| 
|-7-----------------5---| 
|-7-----7-----3-----5---| 
|-5-----7-----3-----3---| 
|-------5-----1---------| 
 
D5 
   You talk about it 
A5 
   Don't know what you want 
F5                        C5 
   In the back of someone else's car 
 
 
Outro: 
 F5    E5     F5   E5   G5   F5   C5  D5  E5    
|---------------------------------------------| 
|---------------------------------------------| 
|----------------------------------5---7---9--| 
|-3-----2------3----2----5----3----5---7---9--| 
|-3-----2------3----2----5----3----3---5---7--| 
|-1-----0------1----0----3----1---------------| 
 
 
 
F5                  E5 
   It rains and you fall back down again 
F5                            E5                              G5  F5 
   It begins to rain and I'll knock you right back down again 
                        C5 
You incessant bitch you lied in wait for the last time now 
D5 
   I'm standing now 
E5    
   I'm standing now 
 
 
 **************************SOLO************************************* 
 
|-------------------------------------------------------------------| 
|-13-------13-------13-------------13b14----------------------------| 
|----14-14----14-14----14-14-12-14----------------------------------| 
|-----------------------------------------5/7-7-5/7-7-5/7-7-5/7-7---| 
|-------------------------------------------------------------------| 
|-----------------------------------------3/5-5-3/5-5-3/5-5-3/5-5---| 
 
|-------15----17-15---------------------------------------------------------| 
|-15b17----15---------------------19b20----16-17-16----16----16----16-------| 
|-------------------14-15-17-14---------------------18----18----18-------13-|    
|---------------------------------------------------------------------18----| 
|---------------------------------------------------------------------------| 
|---------------------------------------------------------------------------| 
 
|----------------------------------------------------------------| 
|--17b18----15-19-17-15-17-15----15-----------------15-----------| 
|-----------------------------19----19-19p-17-15-17----19-17-15--| 
|----------------------------------------------------------------| 
|----------------------------------------------------------------| 
|----------------------------------------------------------------| 
 
 
    
|-------------------11------------------------------------17----17-15----------| 
|-13b14----13-11-13----14-11-14-11----11---15b16----15b16----15-------17-15----| 
|----------------------------------13------------------------------------------| 
|------------------------------------------------------------------------------| 
|------------------------------------------------------------------------------| 
|------------------------------------------------------------------------------| 
 
 
                                                                                      ~~~~~~ 
    
|-20-19-17-17-17-15-14----14----14-------14----------------------14--------------------------| 
|----------------------17----17----17-14----17-14-15----14-15-17----17-14-15----15-----20b---| 
|----------------------------------------------------16----------------------16----16--------| 
|--------------------------------------------------------------------------------------------| 
|--------------------------------------------------------------------------------------------| 
|--------------------------------------------------------------------------------------------| 
 
Os outros versos e refrões são iguais os primeiros 
 
 
Letra: 
 
SPECTACLE 
(Scott Weiland/Slash/Duff McKagan/Matt Sorum/Dave Kushner) 
 
Take 2 to break and 3 to go 
Hold me back you spectacle 
(Mother fucker yeah) 
Kick me down with broken bones 
You picked a fight now stand your ground 
 
You talk about it 
Don't know what you want 
In the back of someone else's car 
 
You write the list 
Well write me off 
Rocket bitch is blasting off 
(Right on target yeah) 
Boots laced up I'm here to go 
In the end I'll stand alone 
 
You talk about it 
Don't know what you want 
In the back of someone else's car 
You lied about it 
Bled another heart 
Then began to fall apart 
 
It rains and you fall back down again 
It begins to rain and I'll knock you right back down again" 
You incessant bitch you lied in wait for the last time now 
I'm standing now 
I'm standing now 
 
_______________________________________________________ 
Contribuição: Vinicius Ceska([email protected]) 
		  

Full key step upFull key step up
Half key step upHalf key step up
Half key step downHalf key step down
Full key step downFull key step down
hide glossary

See also:

tabs James Blunt - Cry tabs Iron Butterfly - IronButterfly-in A Gadda Da Vida tabs Stone Sour - Through glass (ver. 2) tabs Candlebox - Far behind tabs Mudvayne - World so cold tabs James Blunt - Wisemen
e-chords

Other versions:

tabs Velvet Revolver - Spectacle
auto scroll beats size up size down change color hide chords drawings
tab show chords e-chords YouTube Clip e-chords hide all tabs e-chords go to top tab

share