Velvet Revolver

Spectable

Velvet Revolver

tabs

by  PAZIN

save to print version add songbook text version e-mail correct tuner
chordsukulelecavacokeyboardtabbassdrumsharmonicaflute Guitar Pro
close

there isn't a video lesson for this song

chords

Spectable

	  		Intro - count how many times the riff plays urself:: 
      
|---------------------------------------------| 
|---------------------------------------------| 
|---------------------------------------------| 
|---------------------------------------------| 
|---------4-1-1-4-1-1-4-1--4-1-1-4-1-1-4-1----| 
|--/5b6---------------------------------------| 
 
::Verse 1 played with riff below:: 
   
|--------------------------------------------| 
|--------------------------------------------| 
|--------------------------------------------| 
|--------------------------------------------| 
|-4-1-1-4-1-1-4-1--4-1-1-4-1-1-4-1--6---4----| 
|-----------------------------------4---2----| 
 
"Take two to break and three to go 
Hold me back you spectacle (Mother ***er yeah) 
Kick me down with broken bones 
You picked a fight now stand your ground" 
 
::Chorus - played with below chords:: 
              ~ 
   
|-----------------------| 
|-----------------------| 
|-8----------------6----| 
|-8-----8-----4----6----| 
|-6-----8-----4----4----| 
|-6-----6-----2----4----| 
 
"You talk about it 
Don't know what you want 
In the back of someone else's car" 
 
::Verse 2 - again same as verse 1:: 
 
|--------------------------------------------| 
|--------------------------------------------| 
|--------------------------------------------| 
|--------------------------------------------| 
|-4-1-1-4-1-1-4-1--4-1-1-4-1-1-4-1--6---4----| 
|-----------------------------------4---2----| 
   
"You write the list 
Well write me off  
Rocket bitch is blasting off (Right on target yeah) 
Boots laced up I'm here to go 
In the end I'll stand alone"  
 
::Chorus:: 
 
|-----------------------| 
|-----------------------| 
|-8----------------6----| 
|-8-----8-----4----6----| 
|-6-----8-----4----4----| 
|-6-----6-----2----4----| 
 
"You talk about it 
Don't know what you want 
In the back of someone else's car 
 
You lied about it 
Bled another heart 
Then began to fall apart" 
 
::Bridge - chords change at the ending of the bridge, listen to song.:: 
 
|-----------------------------------| 
|-----------------------------------| 
|-----------------------------------| 
|-4-----3--------4----3----6---4----| 
|-4-----3--------4----3----6---4----| 
|-2-----1--------2----1----4---2----| 
 
"It rains and you fall back down again 
It begins to rain and I'll knock you right back down again" 
 
|---------------------| 
|---------------------| 
|---------------------| 
|-4---11---13---15----| 
|-4---11---13---15----| 
|-2----9---11---13----| 
 
"You incessant bitch you lied in wait for the last time now 
I'm standing now 
I'm standing now" 
 
:Solo - chords for the solo you can work out yourself, they are very simple" 
   
|------------------------------------------------------------------------16----18-16-------------| 
|-14-------14-------14-------------14b15---------------------------16b18----16-------------------| 
|----15-15----15-15----15-15-13-15---------------------------------------------------15-16-18-15-| 
|-----------------------------------------6S8-8-6S8-8-6S8-8-6S8-8--------------------------------| 
|------------------------------------------------------------------------------------------------| 
|-----------------------------------------4S6-6-4S6-6-4S6-6-4S6-6--------------------------------| 
 
 
    
|-----------------------------------------------------------------------------------------------------------| 
|-20b21.5--17-18-17----17----17----17---------18b19.5--16-20-18-16-18-16----16-----------------16-----------| 
|-------------------19----19----19-------14------------------------------20----20-20p-18-16-18----20-18-16--| 
|-------------------------------------19--------------------------------------------------------------------| 
|-----------------------------------------------------------------------------------------------------------| 
|-----------------------------------------------------------------------------------------------------------| 
 
 
    
|-------------------12------------------------------------18----18-16----------| 
|-14b15.5--14-12-14----15-12-15-12----12---16b17.5--16b17----16-------18-16----| 
|----------------------------------14------------------------------------------| 
|------------------------------------------------------------------------------| 
|------------------------------------------------------------------------------| 
|------------------------------------------------------------------------------| 
 
 
                                                                                        ~~~~~~~ 
    
|-21-20-18-18-18-16-15----15----15-------15----------------------15-------------------------------| 
|----------------------18----18----18-15----18-15-16----15-16-18----18-15-16----16-----21b22.5----| 
|----------------------------------------------------17----------------------17----17-------------| 
|-------------------------------------------------------------------------------------------------| 
|-------------------------------------------------------------------------------------------------| 
|-------------------------------------------------------------------------------------------------| 
 
::Just this before moves forward after solo:: 
 
|-----------------|--------------------| 
|-----------------|--------------------| 
|-----------------|--------------------| 
|-----------------|--------------------| 
|-4-1-1-4-1-1-4-1-|-4-1-1-4-1-1-4-1----| 
|-----------------|--------------------| 
 
 
::Verse 1 repeat:: 
 
|--------------------------------------------| 
|--------------------------------------------| 
|--------------------------------------------| 
|--------------------------------------------| 
|-4-1-1-4-1-1-4-1--4-1-1-4-1-1-4-1--6---4----| 
|-----------------------------------4---2----| 
 
"Take two to break and three to go 
Hold me back you spectacle (Mother ***er yeah) 
Kick me down with broken bones 
You picked a fight now stand your ground" 
 
::Chorus:: 
 
|-----------------------| 
|-----------------------| 
|-8----------------6----| 
|-8-----8-----4----6----| 
|-6-----8-----4----4----| 
|-6-----6-----2----4----| 
 
"You talk about it 
Don't know what you want 
In the back of someone else's car 
 
You lied about it 
Bled another heart 
Then began to fall apart" 
 
::Chorus - This time with an added riff in the back ground, play Riff X over chords:: 
 
|-----------------------| 
|-----------------------| 
|-8----------------6----| 
|-8-----8-----4----6----| 
|-6-----8-----4----4----| 
|-6-----6-----2----4----| 
 
>>Riff X<< 
 
|-----------------|----------------| 
|-----------------|----------------| 
|-----------------|----------------| 
|-0-3-2-3-3-4-3-0-|-3-2-3-3-4-3----| X i dunno how many times, count. 
|-----------------|----------------| 
|-----------------|----------------| 
 
"You talk about it 
Don't know what you want 
In the back of someone else's car 
 
You lied about it 
Bled another heart 
Then began to fall apart" 
 
::Outro:: 
   
|-----------------|--------------------| 
|-----------------|--------------------| 
|-----------------|--------------------| 
|-----------------|--------------------| 
|-4-1-1-4-1-1-4-1-|-4-1-1-4-1-1-4-1----| 
|-----------------|--------------------| 
 

		  

See also:

tabs James Blunt - Cry tabs Iron Butterfly - IronButterfly-in A Gadda Da Vida tabs Stone Sour - Through glass (ver. 2) tabs Candlebox - Far behind tabs Mudvayne - World so cold tabs James Blunt - Wisemen
e-chords

Other versions:

tabs Velvet Revolver - Spectable
auto scroll beats size up size down change color hide chords drawings
tab show chords e-chords YouTube Clip e-chords hide all tabs e-chords go to top tab

share