Velvet Revolver

Headspace

Velvet Revolver

tabs

by  VMEHMERI

save to print version add songbook text version e-mail correct tuner
chordsukulelecavacokeyboardtabbassdrumsharmonicaflute Guitar Pro
close

there isn't a video lesson for this song

chords

Headspace

Year: 2004 - Album: Contraband

	  		 
Intro 
e------------------------------------------------------------l 
B------------------------------------------------------------l 
G----55555555---4/5555555---4/5555555---4/5555555------------l 
D----55555555---4/5555555---4/5555555---4/5555555------------l 
A----33333333---2/3333333---2/3333333---2/3333333------------l 
E------------------------------------------------------------l 
 
 
Main Riff  
e-----------------------------------------------------------l 
B-----------------------------------------------------------l 
G----5/7\5--------------------------------------------------l 
D----5/7\5----3---3---3---2---------------------------------l 
A----3/5\3----3---3---3---2---------------------------------l 
E-------------1---1---1---0---------------------------------l 
 
 
(Lead over the main riff with wah pedal) 
e-----------------------------------------------------------l 
B-----------------------------------------------------------l 
G-----------------------------------------------------------l 
D--------------3---5---6---2--------------------------------l 
A----3/5\3---0---0---0---0----------------------------------l 
E-----------------------------------------------------------l 
 
 
Verse (Esse não está exato...)  
e------------------------------------------------------------l 
B------------------------------------------------------------l 
G------------------------------------------------------------l 
D------5/7--7-7-7-7-7-5/7----7\5-----------------------------l 
A------5/7--7-7-7-7-7-5/7----7\5-----------------------------l 
E------3/5--5-5-5-5-5-3/5----5\3-----------------------------l 
 
 
 
e-----------------------------------------------------------l 
B-----------------------------------------------------------l 
G-----------------------------------------------------------l 
D-----------------------------------------------------------l 
A--0h3h5p0h3h5p3h5------------------------------------------l 
E-----------------------------------------------------------l 
 

		  

See also:

tabs James Blunt - Cry tabs Iron Butterfly - IronButterfly-in A Gadda Da Vida tabs Stone Sour - Through glass (ver. 2) tabs Candlebox - Far behind tabs Mudvayne - World so cold tabs James Blunt - Wisemen
e-chords

Other versions:

tabs Velvet Revolver - Headspace tabs Velvet Revolver - Headspace (ver.2)
auto scroll beats size up size down change color hide chords drawings
tab show chords e-chords YouTube Clip e-chords hide all tabs e-chords go to top tab

share