Veer Union

Borderline

Veer Union

tabs

by  VICTBORGES

save to print version add songbook text version e-mail correct tuner
chordsukulelecavacokeyboardtabbassdrumsharmonicaflute Guitar Pro
close

there isn't a video lesson for this song

chords

Borderline

	  		 

Riff 1 
 C|-------------------------| 
 G|-------------------------| 
D#|-------------------------| 
A#|-------------------------| x3 
 F|-------------------------| 
A#|-10h12-0--0--3--5--10-10-| 

 C|------------------------------| 
 G|------------------------------| 
D#|------------------------------| 
A#|------------------------------| 
 F|------------------------------| 
A#|-10h12-0--0--3--5-10-10-10-10-| 

Riff 2   "I try to speak out loud..." 
 C|--------------------------------------| 
 G|--------------------------------------| 
D#|--------------------------------------| 
A#|-0-0--------0-0--------8-8--------8-8-| 
 F|-0-0--------0-0--------8-8--------8-8-| 
A#|-0-0--------0-0--------8-8--------8-8-| 
    * *        * *        * *        * * 

 C|-------------------------------------------------------| 
 G|-------------------------------------------------------| 
D#|-------------------------------------------------------| 
A#|-0-0--------10--0-0--------10--8-8-8-8-8-8-8-8-5-5-5-5-| 
 F|-0-0--------10--0-0--------10--8-8-8-8-8-8-8-8-5-5-5-5-| 
A#|-0-0--------10--0-0--------10--8-8-8-8-8-8-8-8-5-5-5-5-| 

Riff 3   "Borderline..." 
 C|------------------------------------| 
 G|------------------------------------| 
D#|------------------------------------| 
A#|-0-0-0-0-10\-3--5-5-5-5-5-3-3-10-10-| x2 
 F|-0-0-0-0-10\-3--5-5-5-5-5-3-3-10-10-| 
A#|-0-0-0-0-10\-3--5-5-5-5-5-3-3-10-10-| 

 C|-----------------------------| 
 G|-----------------------------| 
D#|-----------------------------| 
A#|-8-8-8-8-8-8-8-8-5-5-5-5-10~-| 
 F|-8-8-8-8-8-8-8-8-5-5-5-5-10~-| 
A#|-8-8-8-8-8-8-8-8-5-5-5-5-10~-| 

Play Riff 2 x1   "The war in me is surfacing..." 

Riff 2 beginning alteration: 
 C|-------------------------------------| 
 G|-------------------------------------| 
D#|-------------------------------------| 
A#|-0-0----10-0-0--------8-8--------8-8-| the rest of the riff continues the same 
 F|-0-0----10-0-0--------8-8--------8-8-| 
A#|-0-0----10-0-0--------8-8--------8-8-| 
    * *       * *        * *        * * 

Play Riff 3 x1   "Borderline..." 
                  (the 10-10-10 chord at the end gets played 4 times instead of just once this time) 
Play Riff 1 x1 
Play Riff 3 x1   "Borderline..." 
                   
Riff 3 ending alteration: 
 C|---------------------------------------------------------------------| 
 G|---------------------------------------------------------------------| 
D#|---------------------------------------------------------------------| 
A#|-8-8-8-8-8-8-8-8-5-5-5-5-5-5-5-5-8-8-8-8-8-8-8-8-5-5-5-5-10-10-10-10-| 
 F|-8-8-8-8-8-8-8-8-5-5-5-5-5-5-5-5-8-8-8-8-8-8-8-8-5-5-5-5-10-10-10-10-| 
A#|-8-8-8-8-8-8-8-8-5-5-5-5-5-5-5-5-8-8-8-8-8-8-8-8-5-5-5-5-10-10-10-10-| 

Play Riff 1 x1   "Disappear..."  
		  

auto scroll beats size up size down change color hide chords drawings
tab show chords e-chords YouTube Clip e-chords hide all tabs e-chords go to top tab

share