Van Zant

Midnight Sensation

Van Zant

tabs

by  ROBEPOIEL

save to print version add songbook text version e-mail correct tuner
chordsukulelecavacokeyboardtabbassdrumsharmonicaflute Guitar Pro
close

there isn't a video lesson for this song

chords

Midnight Sensation

	  		

                                                                                
G||-------|-------|-------|-------|-----------------------|-------------------| 
D||-------|-------|-------|-------|-----------------------|-------------------| 
A||-------|-------|-------|-------|-----------12\----0----|--L----------------| 
E||-------|-------|-------|-------|-----------------------|-------------------| 


                                                             
-------------------|-------------------|-------------------| 
-------------------|-------------------|-------------------| 
--L----------------|--L----------------|--L----------------| 
-------------------|-------------------|-------------------| 


                                                       
--------------------------|--------------------------| 
--------------------------|--------------------------| 
--------------------------|--------------------------| 
--5--5--5--5--5--5--5--5--|--5--5--5--5--5--5--5--5--| 


                                                       
--------------------------|--------------------------| 
--------------------------|--------------------------| 
--------------------------|--------------------------| 
--5--5--5--5--5--5--5--5--|--5--5--5--5--5--0--3--5--| 


                                                                                
--------------------------|--------------------------|------------------------| 
--------------------------|--------------------------|------------------------| 
--------------------------|--------------------------|--------4-----5----5----| 
--L--5--5--5--5--5--5--5--|--5--5--5--5--5--5--5--5--|--5--5-----5------------| 


                                                                              
----------------------|--------------------------|--------------------------| 
----------------------|--------------------------|--------------------------| 
--7-------------------|--------------------------|--------------------------| 
-------0--5--------5--|--5--5--5--5--5--5--5--5--|--5--5--5--5--5--5--5--5--| 


                                                       
--------------------------|--------------------------| 
--------------------------|--------------------------| 
--------------------------|--------------------------| 
--5--5--5--5--5--5--5--5--|--5--5--5--5--5--5--5--5--| 


                                                                                
--------------------------|--------------------------|------------------------| 
--------------------------|--------------------------|------------------------| 
--------------------------|--------------------------|--------4-----5----5----| 
--5--5--5--5--5--5--5--5--|--5--5--5--5--5--5--5--5--|--5--5-----5------------| 


           .                                                                  
-----------------------|-------------------------|--------------------------| 
-----------------------|----------4--5--4--------|--------------------------| 
--7-----------------5--|--L--5-------------5-----|-----------2--------------| 
-------0--5------5-----|----------------------3--|--L--3--5-----5--3--0--5--| 


                                                                            
-----------------------|------------------------|-------------------------| 
-----------------------|------------------------|----------4--5--4-----5--| 
-------------4----5----|--7---------------4--5--|--L--5-------------5-----| 
--L--5----5------------|-------3--5----5--------|-------------------------| 


                                                                                
-------------------------|--------------------------|-------------------------| 
--L--5--4----------------|-----------2--------------|----------4-----5-----6--| 
-------------7--5--------|--------------------------|-------------------------| 
-------------------5--0--|--L--3--4-----0--3--0--0--|--0----2-----3-----4-----| 


                                                                                
--------------------------|--------------------------|------------------------| 
--------------------------|--------------------------|------------------------| 
--------------------------|--------------------------|--------4-----5----5----| 
--5-----5-----5-----5-----|--5-----5-----5-----5--5--|--L--5-----5------------| 


                                                                                
------------------------|--------------------------|--------------------------| 
------------------------|--------------------------|--------------------------| 
--7---------------------|--------------------------|--------------------------| 
-------0--5----0--2--3--|--5--5--5--5--5--5--5--5--|--5--5--5--5--5--5--5--5--| 


                                                       
--------------------------|--------------------------| 
--------------------------|--------------------------| 
--------------------------|--------------------------| 
--5--5--5--5--5--5--5--5--|--5--5--5--5--5--5--5--5--| 


                                                                                
--------------------------|--------------------------|------------------------| 
--------------------------|--------------------------|------------------------| 
--------------------------|--------------------------|--------4-----5----5----| 
--5--5--5--5--5--5--5--5--|--5--5--5--5--5--5--5--5--|--5--5-----5------------| 


           .                                                                  
-----------------------|-------------------------|--------------------------| 
-----------------------|----------4--5--4--------|--------------------------| 
--7-----------------5--|--L--5-------------5-----|-----------2--------------| 
-------0--5------5-----|----------------------3--|--L--3--5-----5--3--0--5--| 


                                                                                 
--------------------------|--------------------------|-------------------------| 
--------------------------|--------------------------|----------4--5--4-----5--| 
--------5----5p--4--------|--------5----5p--4-----5--|--L--5-------------5-----| 
--L--5--------------5--5--|--L--5--------------5-----|-------------------------| 


                                                                                
-------------------------|--------------------------|-------------------------| 
--L--5--4----------------|-----------2--------------|----------4-----5-----6--| 
-------------7--5--------|--------------------------|-------------------------| 
-------------------5--0--|--L--3--4-----0--3--0--0--|--0----2-----3-----4-----| 


                                                       
--------------------------|--------------------------| 
--------------------------|--------------------------| 
--------------------------|--------------------------| 
--5-----5-----5-----5-----|--5-----5-----5-----5--5--| 


                                                       
--------------------------|--------------------------| 
--------------------------|--------------------------| 
--------------------------|--------------------------| 
--L--5--5-----5-----5-----|--5-----5-----5--0--2--5--| 


                                                                                
--------------------------|--------------------------|------------------------| 
--------------------------|--------------------------|------------------------| 
--------------------------|--------------------------|--------4-----5----5----| 
--L--5--5-----5-----5-----|--5-----5-----5-----5--5--|--L--5-----5------------| 


                                                               
----------------------|-----------|-----14----11-------------| 
----------------------|-----------|-----------------11-------| 
--7----------------0--|--L--------|-----------------------9--| 
-------0--5-----------|-----------|--------------------------| 


   .                          .           .            
-------------------------|---------------------------| 
--9---------9--7---------|--11----------11-----------| 
---------9--------9--11--|----------11----------11\--| 
-------------------------|---------------------------| 


   .                                                  .         .          
--------------------------|-----------------------|----------------------| 
--9---------9--/11--9--7--|--L--7----7------------|----------------------| 
---------9----------------|-----0---------9----7--|---------9--9---------| 
--------------------------|-----------------------|--7----------------7--| 


   .           .             .           .                                      
------------------------|--------------------------|--------------------------| 
------------------------|--------------------------|--------------------------| 
---------11--11---------|----------12--12----------|---------------7-------7--| 
--9------------------9--|--10------------------10--|--12\--0--0---------0-----| 


                                                           
------------------------------|--------------------------| 
------------------------------|--------------------------| 
--9----7----7-7---------------|--------------------------| 
----------------10-10-9-9-7-7-|--5-----5-----5-----5-----| 


                                                       
--------------------------|--------------------------| 
--------------------------|--------------------------| 
--------------------------|--------------------------| 
--5-----5-----5-----5-----|--5-----5-----5-----5-----| 


                                                       
--------------------------|--------------------------| 
--------------------------|--------------------------| 
--------------------------|--------------------------| 
--5-----5-----5--0--2--5--|--L--5--5-----5-----5-----| 


                                                       
--------------------------|--------------------------| 
--------------------------|--------------------------| 
--------------------------|--------------------------| 
--5-----5-----5-----5-----|--5-----5-----5-----5-----| 


                                                       
--------------------------|--------------------------| 
-----------------------7--|--L\----------------------| 
--------------------------|--------------------------| 
--5-----5-----5-----5-----|--------5--5--5--5--5--5--| 


                                                       
--------------------------|--------------------------| 
--------------------------|--------------------------| 
--------------------------|--------------------------| 
--5--5--5--5--5--5--5--5--|--5--5--5--5--5--5--5--5--| 


                                                       
--------------------------|--------------------------| 
--------------------------|--------------------------| 
--------------------------|--------------------------| 
--5--5--5--5--5--5--5--5--|--5--5--5--5--5--5--5--5--| 


                                                       
--------------------------|--------------------------| 
--------------------------|--------------------------| 
--------------------------|--------5-----5--5--5--5--| 
--5--5--5--5--5--5--5--5--|--5--5-----5--------------| 


                                                         
-----------------------------|-------------------------| 
-----------------------------|----------4--5--4--------| 
--7-7-7--7-7-7--7-7-7\----5--|--L--5-------------5-----| 
-----------------------------|----------------------3--| 


                                                       
--------------------------|--------------------------| 
--------------------------|--------------------------| 
-----------2--------------|--------5----5p--4--------| 
--L--3--5-----5--3--0--5--|--L--5--------------5--5--| 


                                                                                
--------------------------|-------------------------|-------------------------| 
--------------------------|----------4--5--4-----5--|--L--5--4----------------| 
--------5----5p--4-----5--|--L--5-------------5-----|-------------7--5--------| 
--L--5--------------5-----|-------------------------|-------------------5--0--| 


                                                                                 
--------------------------|-------------------------|--------------------------| 
-----------2--------------|----------4-----5-----6--|--------------------------| 
--------------------------|-------------------------|--------------------------| 
--L--3--4-----0--3--0--0--|--0----2-----3-----4-----|--5-----5-----5-----5-----| 


                                                       
--------------------------|--------------------------| 
--------------------------|--------------------------| 
--------------------------|--------------------------| 
--5-----5-----5-----5--5--|--L--5--5-----5-----5-----| 


                                                       
--------------------------|--------------------------| 
--------------------------|--------------------------| 
--------------------------|--------------------------| 
--5-----5-----5--0--2--5--|--L--5--5-----5-----5-----| 


                                                                              
--------------------------|------------------------|------------------------| 
--------------------------|------------------------|------------------------| 
--------------------------|--------4-----5----5----|--7---------------------| 
--5-----5-----5-----5--5--|--L--5-----5------------|-------0--5----0--3--5--| 


                                                       
--------------------------|--------------------------| 
--------------------------|--------------------------| 
--------------------------|--------------------------| 
--5-----5-----5-----5-----|--5-----5-----5-----5-----| 


                                                       
--------------------------|--------------------------| 
--------------------------|--------------------------| 
--------------------------|--------------------------| 
--5-----5-----5-----5-----|--5-----5-----5-----5--5--| 


                                                       
--------------------------|--------------------------| 
--------------------------|--------------------------| 
--------------------------|--------------------------| 
--L--5--5-----5-----5-----|--5-----5-----5-----5-----| 


                                                       
--------------------------|--------------------------| 
--------------------------|--------------------------| 
--------------------------|--------------------------| 
--5-----5-----5-----5-----|--5-----5-----5-----5--5--| 


                                                       
--------------------------|--------------------------| 
--------------------------|--------------------------| 
--------------------------|--------------------------| 
--L--5--5--5--5--5--5--5--|--5--5--5--5--5--5--5--5--| 


                                                        
--------------------------|--------------------------|| 
--------------------------|--------------------------|| 
--------------------------|--------------------------|| 
--5--5--5--5--5--5--5--5--|--5--5--5--5--5--5--5--5--|| 

 
		  

See also:

tabs John Denver - Take Me Home, Country Roads tabs Alison Krauss - You Say Nothing At All tabs Bat Country - Avenged sevenfold tabs Garth Brooks - The Dance tabs George Strait - Desperately tabs Charlie Daniels - Long Haired Country Boy (ver. 2)
e-chords

Other versions:

tabs Van Zant - Midnight Sensation
auto scroll beats size up size down change color hide chords drawings
tab show chords e-chords YouTube Clip e-chords hide all tabs e-chords go to top tab

share