Van Halen

home > Van Halen

You Really Got Me Tab

Van Halen

Difficulty: BeginnerBeginner

tuner correct add songbook print version text version save to e-mail
chordsukulelecavacokeyboardtabbassdrumsharmonicsflute Guitar Pro
chords

You Really Got Me

Year: 1978 - Album: Van Halen

	   
Tune Guitar half step down, Enjoy! 
 
----|-------------------------|----------------------------------------------- 
----|-------------------------|----------------------------------------------- 
----|-2--2-----2------2/------|-2--2-----2---x--x--x-------------------------- 
----|-2--2-----2------2/------|-2--2-----2---x--x--x-------------------------- 
----|-0--0-----0--------------|-0--0-----0------------------------------------ 
-3--|-------3-------------3---|-------3----------------3---------------------- 
                                                                          
 
-|----------------------------|--------------------|-------------------------- 
-|----------------------------|--------------------|-------------------------- 
-|-2--2-----2----x--x--x------|-2--2-----2---x-x-x-|-2--2--------------------- 
-|-2--2-----2----x--x--x------|-2--2-----2---x-x-x-|-2--2--------------------- 
-|-0--0-----0-----------------|-0--0-----0---------|-0--0--------------------- 
-|-------3-----------------3--|-------3------------|-------3^b--3--3^15-15-- 
   Intro                                                                  
 
----------------|-----------------|-----------------------|------------------- 
----------------|-----------------|-----------------------|------------------- 
-2--2-----2-----|-2--2-----2------|-2--2-----2------4^b^4-|------------------- 
-2--2-----2-----|-2--2-----2---x--|-2--2-----2---x--------|------------------- 
-0--0-----0-----|-0--0-----0---x--|-0--0-----0------------|------------------- 
-------3-------3|-------3--------3|-------3---------------|------------------- 
                                                                          
 
-------------------------|-----------------|-----------------|---------------- 
-------------------------|-----------------|-----------------|---------------- 
-4^b-2-------------------|-2--2----2-------|-2--2----2-------|---------------- 
-------3^b--3-2----------|-2--2----2----x--|-2--2----2---x---|---------------- 
----------------3^b---3-2|-0--0----0----x--|-0--0----0---x---|---------------- 
-------------------------|-------3--------3|-------3--------3|---------------- 
                                                                          
 
---------------------------------------------|-------------------------------- 
---------------------------------------------|-------------------------------- 
-2--2----2----7b--7^5--7b--------------------|-------------------------------- 
-2--2----2------------------5b--7------------|-------------------------------- 
-0--0----0-------------------------5b--7--35|-------------------------------- 
-------3-------------------------------------|-------------------------------- 
         verse                                                            
 
-|-------------------|---------------|------------------------|--------------- 
-|-------------------|---------------|------------------------|--------------- 
-|-4--4-----4--------|-4--4-----4----|------------------------|--------------- 
-|-4--4-----4---x----|-4--4--4--4---4|-4--4-4--4--4h7-7--8--8|--------------- 
-|-2--2--0--2---x--0-|-2--2--0--2---0|-2--2-0--2--2-5-5--6--6|--------------- 
-|-------------------|---------------|------------------------|--------------- 
              pre chorus                                                  
 
-|--------------------|---------------------|--------------------------------- 
-|--------------------|---------------------|--------------------------------- 
-|-9--9--7--9--9----7|-9--9--7--9---9----7|-9--9--7--9--9--x--------------- 
-|-9--9--7--9--9----7|-9--9--7--9---9----7|-9--9--7--9--9--x--------------- 
-|-7--7--5--7--7----5|-7--7--5--7---7----5|-7--7--5--7--7--x-5-5----------- 
-|--------------------|---------------------|--------------------------------- 
                                                                          
 
-|-----------------------------|-------------------|-------------------------- 
-|----------x-x-----------7--7-|-------------------|-------------------------- 
-|-9--9--7--x-x-----------7--7-|-9--9--7---9b----9-|-9--9--7--9---9--x-x----- 
-|-9--9--7--x-x--------2--7--7-|-9--9--7-----------|-9--9--7--9---9--x-x----- 
-|-7--7--5----------------5--5-|-7--7--5-----------|-7--7--5--7---7--x-x----- 
-|--------------0-3b-----------|-------------------|-----------------------0-- 
                                                                          
 
-------------|---------------------|-----------------|---------------|-------- 
-7---------x-|-x/------------------|-----------------|---------------|-------- 
-7---------x-|-x/---x\-x---------|-----------------|---------------|-------- 
-7-----------|------x\-x---------|-2--2-----2------|-2--2----2-----|-------- 
-5-----------|------x\-x-----^---|-0--0-----0------|-0--0----0-----|-------- 
-------------|---------------12/15|-------3--------3|-------3------3|-------- 
  chorus                                 2nd verse                        
 
-|------------------|---------------------------|-----------|----------------- 
-|------------------|-----^^^-------------------|-----------|----------------- 
-|--------------9b--|-9--7-9-76----------------|-----------|----------------- 
-|-2--2-----2-------|-------------7-------------|-2----2----|-2--2-----2------ 
-|-0--0-----0-------|----------------7--------^-|-0----0----|-0--0-----0------ 
-|-------3----------|-------------------9b---94|----3-----3|-------3------3-- 
                                                                          
 
-|-----------------^----|----^------^-^-----^-^-^----^------|----------------- 
-|---------------5-8-5--|-9-8-5--9--8-5--9-5-8-5--9-5--9-|----------------- 
-|-------------x--------|-----------------------------------|-4--4-----4------ 
-|-2--2----2------------|-----------------------------------|-4--4-----4------ 
-|-0--0----0------------|-----------------------------------|-2--2--0--2---0-- 
-|-------3--------------|-----------------------------------|----------------- 
                                                               pre chorus 
 
-|-------------------|------------------|---------------------|--------------- 
-|-------------------|------------------|---------------------|--------------- 
-|-------------------|------------------|-----------------7--8|--------------- 
-|-4--4--4--4------4-|-4--4--4--4-------|-4--4--4--4---4/-7--8|--------------- 
-|-2--2--0--2------0-|-2--2--0--2-----0-|-2--2--0--2---2/-5--6|--------------- 
-|-------------------|------------------|---------------------|--------------- 
                                                                          
 
-|---------------------|----------------------|-----------------------|------- 
-|-9--9--7--9---9---7-|-9--9--7--9---9----7-|-9--9--7--9---9-----7-|------- 
-|-9--9--7--9---9---7-|-9--9--7--9---9----7-|-9--9--7--9---9-----7-|------- 
-|-9--9--7--9---9---7-|-9--9--7--9---9----7-|-9--9--7--9---9-----7-|------- 
-|-7--7--5--7---7---5-|-7--7--5--7---7----5-|-7--7--5--7---7-----5-|------- 
-|---------------------|----------------------|-----------------------|------- 
 Chorus                                                                   
 
-|--------------------|----------------|--------------------------|-------|--- 
-|-9--9--7--9---9---7|-9-------------|-9--9--7--9----9---------|-7-----|--- 
-|-9--9--7--9---9---7|-9-------------|-9--9--7--9----9---x-----|-7-----|--- 
-|-9--9--7--9---9---7|-9-------------|-9--9--7--9----9---x-----|-7-----|--- 
-|-7--7--5--7---7---5|-7-------------|-7--7--5--7----7---x-----|-5-----|--- 
-|--------------------|------x-x-3-5--2|-----------------------12|-------|--- 
                                                                          
 
-|-----^---------|-5---5--5------5--5---5--------5--5--5|-----5--------------- 
-|--x---x----5b-|-5---5--5------5--5---5--------5--5--5|-----5---^--^-------- 
-|--x---x----7b-|-----------7b-------------7b----------|-7b----7b--7-5-7b---- 
-|--x---x-------|--------------------------------------|--------------------- 
-|---------------|--------------------------------------|--------------------- 
-|---------------|--------------------------------------|--------------------- 
                   guitar solo                                            
 
-----^------^-------^-------^-------^-------^--------^--------^-------^------- 
-x--5-8--10-5-8--10-5-8--10-5-8--10-54--10-7-4--10-7-4-3--10-6-3--10-6-3----- 
------------------------------------------------------------------------------ 
------------------------------------------------------------------------------ 
------------------------------------------------------------------------------ 
------------------------------------------------------------------------------ 
                                                                          
 
-------------|---------------------17----|-------------17--------17----^------ 
-10^2--------|------------^----^------20b|-20b--20--20----20b-20-----20-17---- 
-------4b---4|-9b--9^4---4-2--2/18-------|------------------------------------ 
-------------|---------------------------|------------------------------------ 
-------------|---------------------------|------------------------------------ 
-------------|---------------------------|------------------------------------ 
                                                                          
 
-----------------------------------|------------------------------^----------- 
----17----------^---------------17b|-17--17b--17--17b-----17b---17-14--------- 
-19----19b----19-17--19------14----|-----------------------------------17----- 
-------------------------/16-------|------------------------------------------ 
-----------------------------------|------------------------------------------ 
-----------------------------------|------------------------------------------ 
                                                                          
 
-----------------------|------|--------------------|------------------------|- 
-----------------------|------|--------------------|------------------------|- 
-17b--14--------14-----|-9b--9|-----------9---9-9-9|-9-9-9-9-9-9-9-9-9-9-9-9|- 
-----------------------|------|--------------------|------------------------|- 
---------15-16--------x|------|--------------------|------------------------|- 
----------------------x|------|--------------------|------------------------|- 
                                                                          
 
------------|---------------------|------------------|------------------|----- 
------------|---------------------|------------------|------------------|----- 
-x---------|---------------------|------------------|------------------|----- 
-x---------|---------------------|------------------|------------------|----- 
-x---------|---------------------|------------------|------------------|----- 
---------15|---------------------|------------------|------------------|----- 
              breakdown                                                   
 
---------|-------------|-----------|--------------|--------------------------- 
---------|-------------|-----------|---^----------|--------------------------- 
---5-----|-------------|-----------|-x/xx-------|--------------------------- 
-----5--7|-------------|-----------|-x/xx-------|--------------------------- 
---------|-------------|-----------|-x/xx----^--|--------------------------- 
---------|-------------|-----------|---------12/14|--------------------------- 
                                                                          
 
-|------------------|-------------------|------------------|------------------ 
-|------------------|-------------------|------------------|------------------ 
-|------------------|-------------------|------------------|------------------ 
-|-4--4--4--4------4|-4--4--4--4-------4|-4--4--4--4------4|------------------ 
-|-2--2--0--2------0|-2--2--0--2-------0|-2--2--0--2------0|------------------ 
-|------------------|-------------------|------------------|------------------ 
   pre chorus                                                             
 
-------------------|--------------------|----------------------|-------------- 
----------------2-3|--------------------|-9--9--7--9---9-----7|-------------- 
----------------0-1|-------------------7|-9--9--7--9---9-----7|-------------- 
-4--4--4--4--------|-9--9--7--9--9----7|-9--9--7--9---9-----7|-------------- 
-2--2--0--2--------|-7--7--5--7--7----5|-7--7--5--7---7-----5|-------------- 
-------------------|--------------------|----------------------|-------------- 
                       chorus                                             
 
--------------------------|---------------------------|--------------------|-- 
-9--9--7--9----9--------7|-9---7---------------------|-9---9--7----------7|-- 
-9--9--7--9----9--x--x--7|-9---7-----------------7--7|-9---9--7----------7|-- 
-9--9--7--9----9--x--x--7|-9---7-------------2---7--7|-9---9--7----------7|-- 
-7--7--5--7----7--x--x--5|-7---5-----^-----------5--5|-7---7--5--7b------5|-- 
--------------------------|---------12--3b----------|--------------------|-- 
                                                                          
 
-------------------|-------------|-12------12-----^-------------^----12------- 
-9--9--------------|-9--9--9---12|----15b-----121512------121512---------- 
-9--9--x---9b------|-9--9--9---12|----------------------15-------------------- 
-9--9--x-----------|-9--9--9---12|-------------------------------------------- 
-7--7--x-----------|-7--7--7----x|-------------------------------------------- 
------------------0|-0--0--0----0|-------------------------------------------- 
                       outro                                              
 
-----^------------------------------------------------------------------------ 
-121512----12------^-----------------^-------------------------------------- 
----------16----15-14-12----14-----111211----11-------------^--------------- 
-------------------------14----14-----------14-----12-14--111211----11------ 
-------------------------------------------------------------------14--------- 
------------------------------------------------------------------------------ 
                                                                          
 
-----------------|-----------------------|------------------------------------ 
-----------------|-----------------------|------------------------------------ 
-----------------|-----------------------|------------------------------------ 
---^---^-^-^--^--|-----------------------|------------------------------------ 
--1211975\2b|-2---------------------|------------------------------------ 
-----------------|-0---------------------|------------------------------------ 
 
_______________________________________________________ 
Contribuição: Eduardo(eduardo.rpg@zipmail.com.br) 

	  

there isn't a video lesson for this song

request
Search
auto scroll beats size up size down change color hide chords drawings
tab show chords e-chords YouTube Clip e-chords hide all tabs e-chords go to top tab