Van Halen

home > Van Halen

Panama Tab

Van Halen

Difficulty: AdvancedAdvanced

by rordaque

tuner correct add songbook print version text version save to e-mail
chordsukulelecavacokeyboardtabbassdrummharmonicsflute Guitar Pro
chords

Panama

Year: 1984 - Album: The Best of Both Worlds

	  E-------------------------------------------------------------- 
B--9------10------7------9------10-----7---------7-------8----- 
G--9------9-------8------9------9------8---------7-------7----- 
D--9------9-------9------9------9------9---------7-------7----- 
A--7--7-7----7-7--7--7-7----7-7----7---7--7-6-5--5--5-5-------- 
E-------------------------------------------------------------- 
 
E-------------------------------------------------------------- 
B-------5-------0~~-----9------10-------7------9-------10------ 
G-------6-----0---------9------9--------8------9-------9------- 
D-------7---0-----------9------9--------9------9-------9------- 
A--5-5------------------7--7-7-----7-7--7--7-7----7-7---------- 
E--------------------0----------------------------------------- 
 
E-------------------------------------------------------------- 
B-----7---------7------8------5-------------------------------- 
G-----8---------7------7------6-------------------------------- 
D-----9---------7------7------7-------------------------------- 
A--7--7--7-6-5--5--5-5----5-5---------------------------------- 
E-------------------------------------------------------------- 

	  

there isn't a video lesson for this song

request
Search
auto scroll beats size up size down change color hide chords drawings
tab show chords e-chords YouTube Clip e-chords hide all tabs e-chords go to top tab