Vampire Weekend

Flower Moon

Vampire Weekend

tabs

by  TAMAMOREIRA

save to print version add songbook text version e-mail correct tuner
chordsukulelecavacokeyboardtabbassdrumsharmonicaflute Guitar Pro
close

there isn't a video lesson for this song

chords

Flower Moon

	  		e|-5-4-4---7-5-5---9--7-7--5-5--4--7-----------------------------------------| 
B|-5-------6-7-7---7--7-7--7-7--5--6-----------------------------------------| 
G|-6-------7-7-7---7--7-7--7-7--4--6-----------------------------------------| 
D|-7-------------------------------6-----------------------------------------| 
A|---------------------------------------------------------------------------| 
E|---------------------------------------------------------------------------| 

Followed by chords (see video for pattern) 

e|-9---7---7---7---7---------------------------------------------------------| 
B|-10--9---7---7---9---------------------------------------------------------| 
G|-11--9---8---7---7---------------------------------------------------------| 
D|-11--9---9---7---9---------------------------------------------------------| 
A|-9---7---9---9---7---------------------------------------------------------| 
E|-9---7---7---7---7---------------------------------------------------------| 
    
  F#m  E   B  Bm7  E7 
		  

Full key step upFull key step up
Half key step upHalf key step up
Half key step downHalf key step down
Full key step downFull key step down
hide glossary

See also:

tabs Good Charlotte - Predictable tabs No Doubt - don't speak solo tabs Paramore - Crushcrushcrush tabs Red Hot Chili Peppers - Otherside (intro) tabs Good Charlotte - Hold On tabs Incubus - I Miss You
e-chords

Other versions:

tabs Vampire Weekend - Flower Moon
auto scroll beats size up size down change color hide chords drawings
tab show chords e-chords YouTube Clip e-chords hide all tabs e-chords go to top tab

share