Usher

home > Usher

Yeah Tab

Usher

Difficulty: IntermediateIntermediate

tuner correct add songbook print version text version save to e-mail
chordsukulelecavacokeyboardtabbassdrumsharmonicsflute Guitar Pro
chords

Yeah

  		"yeah" by usher feat. lil john and ludacris 
this song is tight! rate it please ! 
 
 
G---6---7-----7----6--- 
D-4---4-----4----4----- 
A---------------------- 
E---------------------- 
 
G---6---7-----7----6--- 
D-4---4-----4----4----- 
A---------------------- 
E---------------------- 
 
G---6---7-----7----6--- 
D-4---4-----4----4----- 
A---------------------- 
E---------------------- 
 
G---6---7-----7----6--- 
D-4---4-----4----4----- 
A---------------------- 
E---------------------- 
 
G---6---7-----7----6--- 
D-4---4-----4----4----- 
A---------------------- 
E---------------------- 
 
this plays out through the whole song.. have fun !! =D 
	  

Search Paypal
auto scroll beats size up size down change color hide chords drawings
tab show chords e-chords YouTube Clip e-chords hide all tabs e-chords go to top tab