Usher

Burn

Usher

tabs

save to print version add songbook text version e-mail correct tuner
chordsukulelecavacokeyboardtabbassdrumsharmonicaflute Guitar Pro
close

there isn't a video lesson for this song

chords

Burn

	  		Tuning            : Standard 
 
 
{Intro} 
e|-------------------------------------------------------------------------| 
B|-------------------9----9h13--14--13-9-----------------------------------| 
G|------------10-----------------------------------------------------------| 
D|------11-----------------------------------------------------------------| 
A|-------------------------------------------------------------------------| 
E|-------------------------------------------------------------------------| 
 
 
{Verse} 
e|----------------------------------------------------|--------------------| 
B|----------------------9~~~~----/13/14/13--9--10--8--10-----------------|-| 
G|-------------10---------------------------------|------------------------| 
D|------11--------------------------------------------|--------------------| 
A|----------------------------------------------------|--------------------| 
E|----------------------------------------------------|--------------------| 
 
 
Then basically repeat the verse , umm not sure about a chorus but if someone else gets it then its all good 
		  

auto scroll beats size up size down change color hide chords drawings
tab show chords e-chords YouTube Clip e-chords hide all tabs e-chords go to top tab

share