Upon A Burning Body

Intermission

Upon A Burning Body

tabs

by  EDSOOLIVEIRA

save to print version add songbook text version e-mail correct tuner
chordsukulelecavacokeyboardtabbassdrumsharmonicaflute Guitar Pro
close

there isn't a video lesson for this song

chords

Intermission

	  		I. Guitars 1 and 2 (w/ dist) 

   1/4 
 C|--------------| 
 G|--------------| 
D#|--------------| 
A#|--------------| 
 F|--------------| 
A#|-1-1-0--1-1-0-| 
    * * *  * * *  

    7/8 
 C|----------------------------------------------| 
 G|----------------------------------------------| 
D#|----------------------------------------------| x4 
A#|----------------------------------------------| 
 F|-4------------------4-------------------------| 
A#|----3--2--0--1-1-0-----3--1-1-0--1-1-0--1-1-0-| 
       *  *  *  * * *     *  * * *  * * *  * * * 

 C|----------------------------------------------|-----------------------------------------| 
 G|----------------------------------------------|-----------------------------------------| 
D#|----------------------------------------------|-----------------------------------------| 
A#|----------------------------------------------|---------------------------------1---4---| 
 F|----------------------------------------------|---------------------------------1---4---| 
A#|-------------1-1-0---------------1-1-0--1-1-0-|-------------1-1-0---------------1---4---| 
                * * *               * * *  * * *               * * *    
        
   1/4             7/8    
 C|--------------|---------------------------------------------|----------------------------------------| 
 G|--------------|---------------------------------------------|----------------------------------------| 
D#|--------------|---------------------------------------------|---------------------3------------------| 
A#|--------------|--------------------5------------------------|-2----------------------5--2-----1---4--| 
 F|--------------|-4---------------------7--4------------------|----4-------------------------4--1---4--| 
A#|-1-1-0--1-1-0-|----3--2--0--1-1-0-----------5--1-1-0--1-1-0-|-------1-1-0--1-1-0--------------1---4--| 
    * * *  * * *      *  *  *  * * *           *  * * *  * * *         * * *  * * *         

II. Guitar 1 (w/ dist) 

   1/4             7/8 
 C|--------------|---------------------------------------------|----------------------------------------| 
 G|--------------|---------------------------------------------|----------------------------------------| 
D#|--------------|---------------------------------------------|----------------------------------------| 
A#|--------------|---------------------------------------------|-2-------------------------------1---4--| 
 F|--------------|-4-------------------------------------------|----4----------------------------1---4--| 
A#|-1-1-0--1-1-0-|----3--2--0---------------------1-1-0--1-1-0-|-------1-1-0--1-1-0--------------1---4--| 
    * * *  * * *      *  *  *                     * * *  * * *         * * *  * * * 

   1/4             7/8 
 C|--------------|----------------------------------------------|---------------------------------------| 
 G|--------------|----------------------------------------------|---------------------------------------| 
D#|--------------|----------------------------------------------|---------------------------------------| 
A#|--------------|----------------------------------------------|--------------------------------4---7--| 
 F|--------------|-4------------------7-------------------------|-7------------------7-----------4---7--| 
A#|-1-1-0--1-1-0-|----3--2--0--1-1-0-----6--4-4-0--4-4-0--4-4-0-|----6--5--0--4-4-0-----6--5--0--4---7--| 
    * * *  * * *      *  *  *  * * *        * * *  * * *  * * *      *  *  *  * * *     *  *  *     

   1/4             7/8 
 C|--------------|---------------------------------------------|----------------------------------------| 
 G|--------------|---------------------------------------------|----------------------------------------| 
D#|--------------|---------------------------------------------|---------------------6------------------| 
A#|--------------|--------------------8------------------------|-5----------------------8--5-----4---7--| 
 F|--------------|-7---------------------10-7------------------|----7-------------------------7--4---7--| 
A#|-1-1-0--1-1-0-|----6--5--0--4-4-0-----------7--4-4-0--4-4-0-|-------4-4-0--4-4-0--------------4---7--| 
    * * *  * * *      *  *  *  * * *           *  * * *  * * *         * * *  * * * 

    Guitar 2 (w/ dist) 

   1/4             7/8 
 C|--------------|---------------------------------------------|----------------------------------------| 
 G|--------------|---------------------------------------------|----------------------------------------| 
D#|--------------|---------------------------------------------|---------------------3------------------| 
A#|--------------|--------------------5------------------------|------------------------5--2-----1---4--| 
 F|--------------|-----------------------7--4------------------|------------------------------4--1---4--| 
A#|-1-1-0--1-1-0-|-------------1-1-0-----------5--1-1-0--1-1-0-|--------------1-1-0--------------1---4--| 
    * * *  * * *               * * *           *  * * *  * * *                * * *         

   1/4             7/8 
 C|--------------|----------------------------------------------|---------------------------------------| 
 G|--------------|----------------------------------------------|---------------------------------------| 
D#|--------------|----------------------------------------------|---------------------------------------| 
A#|--------------|----------------------------------------------|--------------------------------1---4--| 
 F|--------------|-4------------------4-------------------------|-4------------------4-----------1---4--| 
A#|-1-1-0--1-1-0-|----3--2--0--1-1-0-----3--1-1-0--1-1-0--1-1-0-|----3--2--0--1-1-0-----3--2--0--1---4--| 
    * * *  * * *      *  *  *  * * *     *  * * *  * * *  * * *       *  *  *  * * *     *  *  *  

   1/4             7/8 
 C|--------------|---------------------------------------------|----------------------------------------| 
 G|--------------|---------------------------------------------|----------------------------------------| 
D#|--------------|---------------------------------------------|---------------------3------------------| 
A#|--------------|--------------------5------------------------|-2----------------------5--2-----1---4--| 
 F|--------------|-4---------------------7--4------------------|----4-------------------------4--1---4--| 
A#|-1-1-0--1-1-0-|----3--2--0--1-1-0-----------5--1-1-0--1-1-0-|-------1-1-0--1-1-0--------------1---4--| 
    * * *  * * *      *  *  *  * * *           *  * * *  * * *         * * *  * * *              

|--------------------------------------------------------------------------------------------------------| 
|                                          PART 2 (00:30-00:41)                                          | 
|--------------------------------------------------------------------------------------------------------| 

I. Guitar 1 (w/ dist) 

   4/4 
 C|---------------------------------------| 
 G|---------------------------------------| 
D#|---------------------------------------| 
A#|---------------------------------------| 
 F|---------------------------------------| 
A#|-0--0--0--0---0---0--12h13p12--12-b-r--| 

 C|--------------------------------------|--------------------------------------| 
 G|--------------------------------------|--------------------------------------| 
D#|--------------------------------------|--------------------------------------| 
A#|--------------------------------------|--------------------------------------| 
 F|--------------------------------------|--------------------------------------| 
A#|-0--0--0--0---0---0--0---0---0--0--0--|-0--0---0---0---0--0--0--0---0--0--0--| 

 C|--------------------------------------|--------------------------|-----------| 
 G|--------------------------------------|--------------------------|-----------| 
D#|--------------------------------------|--------------------------|-----------| 
A#|--------------------------------------|--------------------------|-----------| 
 F|--------------------------------------|-7b---------7b---------7b-|-0---------| 
A#|-0--0--0--0---0---0--0---0---0--0--0--|-7b--0---0--7b--0---0--7b-|-0---------| 
                                                   *          *       * 

   Guitar 2 (w/ dist) 

1 bar empty, then: 

 C|--------------------------------------|--------------------------------------| 
 G|--------------------------------------|--------------------------------------| 
D#|--------------------------------------|--------------------------------------| 
A#|--------------------------------------|--------------------------------------| 
 F|--------------------------------------|--------------------------------------| 
A#|-0--0--0--0----------0---0---0--0--0--|-0--0---0---0---0--0--0---------------| 

 C|--------------------------------------|--------------------------|-----------| 
 G|--------------------------------------|--------------------------|-----------| 
D#|--------------------------------------|--------------------------|-----------| 
A#|--------------------------------------|--------------------------|-----------| 
 F|--------------------------------------|-7b---------7b---------7b-|-0---------| 
A#|-0--0--0--0----------0---0---0--0--0--|-7b--0---0--7b--0---0--7b-|-0---------| 
                                                   *          *       * 

   Guitar 3 (w/ dist) 

 C|------------------------------------------------| 
 G|------------------------------------------------| 
D#|------------------------------------------------| 
A#|------------------------------------------------| 
 F|------------------------------------------------| 
A#|`3``3``3``3`---`3`---`3``3`---`3`---`3``6``3`---| 

 C|------------------------------------------------|------------------------------------------------| 
 G|------------------------------------------------|------------------------------------------------| 
D#|------------------------------------------------|------------------------------------------------| 
A#|------------------------------------------------|------------------------------------------------| 
 F|------------------------------------------------|------------------------------------------------| 
A#|`3``3`---`3`---`3`----0-`6``3``6`----0-`3`-0----|`3``3``3``3`---`3`---`3``3`---`3`---`3``6``3`---| 

|--------------------------------------------------------------------------------------------------------| 
|                                          PART 3 (00:41-01:09)                                          | 
|--------------------------------------------------------------------------------------------------------| 

I. Guitar 1 (w/ dist) 

   4/4                                                                      2/4 
 C|--------------------------------------|---------------------------------|--------------| 
 G|--------------------------------------|---------------------------------|--------------| 
D#|--------------------------------------|---------------------------------|--------------| 
A#|----------1----------4-------------1--|--------3------------------------|--------------| 
 F|-0--0--0--1---0---0--4---0---0--0--1--|-0--0---3---0--------------------|--------------| 
A#|-0--0--0--1---0---0--4---0---0--0--1--|-0--0---3---0---0--7b--0---0--4b-|--0---0--4b---| 
    *  *  *      *   *      *   *  *       *  *       *   *          *            * 

   4/4                                                                      2/4 
 C|--------------------------------------|---------------------------------|--------------| 
 G|--------------------------------------|---------------------------------|--------------| 
D#|--------------------------------------|---------------------------------|--------------| 
A#|----------1----------4-------------1--|--------3------------------------|--------------| 
 F|-0--0--0--1---0---0--4---0---0--0--1--|-0--0---3---0--------------------|--------------| 
A#|-0--0--0--1---0---0--4---0---0--0--1--|-0--0---3---0---0--4b--0---0--7b-|--0---0--7b---| 
    *  *  *      *   *      *   *  *       *  *       *   *          *            * 

   4/4                                                                      2/4 
 C|--------------------------------------|---------------------------------|--------------| 
 G|--------------------------------------|---------------------------------|--------------| 
D#|--------------------------------------|---------------------------------|--------------| 
A#|--------------------------------------|---------------------------------|--------------| 
 F|--------------------------------------|---------------------------------|--------------| 
A#|-0--0--0--1---0---0--4---0---0--0--1--|-0--0---3---0---0--1b--0---0--4b-|--0---0--7b---| 
                                                                     *            * 

   4/4                                                                        2/4 
 C|--------------------------------------|-----------------------------------|--------------| 
 G|--------------------------------------|-----------------------------------|--------------| 
D#|--------------------------------------|-----------------------------------|--------------| 
A#|--------------------------------------|-----------------------------------|---------12b--| 
 F|--------------------------------------|-----------------------------------|--------------| 
A#|-0--0--0--1---0---0--4---0---0--0--1--|-0--0---3---0---0--11b--0---0--11b-|--0---0-------| 
                                                                      *             *  + 

   Guitar 2 (w/ dist) 

   4/4                                                                      2/4 
 C|--------------------------------------|---------------------------------|--------------| 
 G|--------------------------------------|---------------------------------|--------------| 
D#|--------------------------------------|---------------------------------|--------------| 
A#|----------1----------4-------------1--|--------3------------------------|--------------| 
 F|-0--0--0--1---0---0--4---0---0--0--1--|-0--0---3---0--------------------|--------------| 
A#|-0--0--0--1---0---0--4---0---0--0--1--|-0--0---3---0---0--7b--0---0--7b-|--0---0--7b---| 
    *  *  *      *   *      *   *  *       *  *       *   *          *            * 

   4/4                                                                        2/4 
 C|--------------------------------------|-----------------------------------|--------------| 
 G|--------------------------------------|-----------------------------------|--------------| 
D#|--------------------------------------|-----------------------------------|--------------| 
A#|----------1----------4-------------1--|--------3--------------------------|--------------| 
 F|-0--0--0--1---0---0--4---0---0--0--1--|-0--0---3---0----------------------|--------------| 
A#|-0--0--0--1---0---0--4---0---0--0--1--|-0--0---3---0---0--11b--0---0--11b-|--0---0--7b---| 
    *  *  *      *   *      *   *  *       *  *       *   *           *             * 

   4/4                                                                      2/4 
 C|--------------------------------------|---------------------------------|--------------| 
 G|--------------------------------------|---------------------------------|--------------| 
D#|--------------------------------------|---------------------------------|--------------| 
A#|--------------------------------------|---------------------------------|--------------| 
 F|--------------------------------------|---------------------------------|--------------| 
A#|-0--0--0--1---0---0--4---0---0--0--1--|-0--0---3---0---0--7b--0---0--7b-|--0---0--7b---| 
    *  *  *      *   *      *   *  *       *  *       *   *          *            * 

   4/4                                                                      2/4 
 C|--------------------------------------|---------------------------------|--------------| 
 G|--------------------------------------|---------------------------------|--------------| 
D#|--------------------------------------|---------------------------------|--------------| 
A#|--------------------------------------|---------------------------------|---------12b--| 
 F|--------------------------------------|---------------------------------|--------------| 
A#|-0--0--0--1---0---0--4---0---0--0--1--|-0--0---3---0---0--4b--0---0--7b-|--0---0-------| 
    *  *  *      *   *      *   *  *       *  *       *   *          *            *  + 

II. Guitar 1 (w/ dist) 

   4/4 
 C|--------------------------------------|--------------------------------------| 
 G|--------------------------------------|--------------------------------------| 
D#|--------------------------------------|--------------------------------------| 
A#|--------------------------------------|--------------------------------------| 
 F|-0--0--0--0---0---0--0---0---0--0--0--|-0--0---0---0---0--0--0--0---0--0--0--| 
A#|-0--0--0--0---0---0--0---0---0--0--0--|-0--0---0---0---0--0--0--0---0--0--0--| 
    *  *  *  *   *   *  *   *   *  *  *    *  *   *   *   *  *  *  *   *  *  * 
 C|--------------------------------------|--------------------------------------| 
 G|--------------------------------------|--------------------------------------| 
D#|--------------------------------------|--------------------------------------| 
A#|--------------------------------------|--------------------------------------| 
 F|-0--0--0--0----------0---0---0--0--0--|-0--0---0---0---0--0--0--0---0--0--0--| 
A#|-0--0--0--0----------0---0---0--0--0--|-0--0---0---0---0--0--0--0---0--0--0--| 
    *  *  *  *          *   *   *  *  *    *  *   *   *   *  *  *  *   *  *  * 

   2/4 
 C|--------------------| 
 G|--------------------| 
D#|--------------------| 
A#|-------1---------4--| 
 F|-0--0--1---0--0--4--| 
A#|-0--0--1---0--0--4--| 
    *  *      *  *  

    Guitar 2 (w/ dist) 

   4/4 
 C|--------------------------------------|--------------------------------------| 
 G|--------------------------------------|--------------------------------------| 
D#|--------------------------------------|--------------------------------------| 
A#|--------------------------------------|--------------------------------------| 
 F|-0--0--0--0---0---0--0---0---0--0--0--|-0--0---0---0---0--0--0--0---0--0--0--| 
A#|-0--0--0--0---0---0--0---0---0--0--0--|-0--0---0---0---0--0--0--0---0--0--0--| 
    *  *  *  *   *   *  *   *   *  *  *    *  *   *   *   *  *  *  *   *  *  * 
 C|--------------------------------------|--------------------------------------| 
 G|--------------------------------------|--------------------------------------| 
D#|--------------------------------------|--------------------------------------| 
A#|--------------------------------------|--------------------------------------| 
 F|-0--0--0--0---0---0--0---0---0--0--0--|-0--0---0---0---0--0--0--0---0--0--0--| 
A#|-0--0--0--0---0---0--0---0---0--0--0--|-0--0---0---0---0--0--0--0---0--0--0--| 
    *  *  *  *          *   *   *  *  *    *  *   *   *   *  *  *  *   *  *  * 

   2/4 
 C|--------------------| 
 G|--------------------| 
D#|--------------------| 
A#|-------1---------4--| 
 F|-0--0--1---0--0--4--| 
A#|-0--0--1---0--0--4--| 
    *  *      *  *  

|--------------------------------------------------------------------------------------------------------| 
|                                          PART 4 (01:09-01:21)                                          | 
|--------------------------------------------------------------------------------------------------------| 

Guitars 1 and 2 (w/ dist) - Rhythm 

   4/4 
 C|-------------------|--------------------|--------|------------------------------| 
 G|-------------------|--------------------|--------|------------------------------| 
D#|-------------------|--------------------|--------|------------------------------| 
A#|-5-----------------|--------------------|-1------|-4---------------------8---7--| 
 F|-5------------6--9-|--------------------|-1------|-4---------1---0---7---8---7--| 
A#|-5------5--8-------|/s8----8----7----1--|-1------|-4---------1---0---7---8---7--| 
           *  *  *  *                   *                       *   *   * 
 C|-------------------------------------------|---------------------------------------------------| 
 G|-------------------------------------------|---------------------------------------------------| 
D#|-------------------------------------------|---------------------------------------------------| 
A#|-------------------------------------------|---------------------------------------------------| 
 F|-------------------------------------------|---------------------------------------------------| 
A#|-5-5-5-5------5-5-5-5-----------5--8--4--5-|-5-5-5-5------5-5-5-5------5-5-5-5------5--8--4--5-| 
    * * * *      * * * *           *  *  *  *   * * * *      * * * *      * * * *      *  *  *  *  

Guitar 3 (w/ dist and delay) - Solo 

   4/4 
 C|----------------------------|---------------------------------| 
 G|----------------------------|-------11-15-15b~~------16--/s19-| 
D#|----------------------------|-8--11------------14-------------| 
A#|/s5----7-h8-p7----5~~~~5--8-|---------------------------------| 
 F|----------------------------|---------------------------------| 
A#|----------------------------|---------------------------------| 
                     +    *  *   *  * 

 C|-----17b-r--17----17~~~\s9--|-10----------------10-11-------------11----------10------| 
 G|---------------14-----------|----11-8-----8--11-------12--------------10--11----------| 
D#|----------------------------|----------7-----------------12-11-8------------------11--| 
A#|----------------------------|---------------------------------------------------------| 
 F|----------------------------|---------------------------------------------------------| 
A#|----------------------------|---------------------------------------------------------| 

 C|------------10---------|-------------| 
 G|-------11b------11-p10-|-------------| 
D#|-12--------------------|-12~~~~~~~~~~| 
A#|-----------------------|-------------| 
 F|-----------------------|-------------| 
A#|-----------------------|-------------| 

|--------------------------------------------------------------------------------------------------------| 
|                                          PART 5 (01:21-01:34)                                          | 
|--------------------------------------------------------------------------------------------------------| 

Guitar 1 (w/ dist) 

 C|-----------------------------------------------------------------| 
 G|-----------------------------------------------------------------| 
D#|-----------------------------------------------------------------| 
A#|-----------------------------------------------------------------| 
 F|-----------------------------------------------------------------| 
A#|-1-1-1-1-1-1-5-5-5-5-5-5-8-8-8-8-7-7-7-7-7-7-4-4-4-4-4-4-1-1-1-1-| 

 C|-----------------------------------------------------------------| 
 G|-----------------------------------------------------------------| 
D#|-----------------------------------------------------------------| 
A#|-----------------------------------------------------------------| 
 F|-5-5-5-5-5-5-4-4-4-4-4-4-1-1-1-1-0-0-0-0-0-0-0-0-----------------| 
A#|-------------------------------------------------4-4-4-4-4-4-4-4-| 

 C|-------------------------------------------------|--------------------------------------------------| 
 G|-------------------------------------------------|--------------------------------------------------| 
D#|-------------------------------------------------|--------------------------------------------------| 
A#|-------------------------------------------------|----------4--------5------------------------------| 
 F|----------4--------6-----------------------------|--------------------------------------------------| 
A#|-7--4--5-----5--7-----5--5--5--5--5--5-5-5--5--5-|-7--4--5-----5--7-----5--5--5--5-5-5-5-5--5--5--5-| 
    *  *  *     *  *     *  *  *  *  *  * * *  *  *   *  *  *     *  *     *  *  *  * * * * *  *  *  * 

 C|-------------------------------------------|---------------------------------|---------------| 
 G|-------------------------------------------|---------------------------------|---------------| 
D#|-------------------------------------------|---------------------------------|---------------| 
A#|-------------------------------------------|-4----5--------------------------|---------------| 
 F|----------1--------4--1---1---1--1---1--1--|-4----5----0---------------------|---------------| 
A#|-4--1--4-----4--1-----0---0---0--0---0--0--|-4----5----0---1-1-0--1-1-0------|-1-1-0---------| 
    *  *  *     *  *     *   *   *  *   *  *              *   * * *  * * *        * * * 

Guitar 2 (w/ dist) 

 C|-----------------------------------------------------------------| 
 G|-----------------------------------------------------------------| 
D#|-----------------------------------------------------------------| 
A#|-5-5-5-5-5-5-7-7-7-7-7-7-----------------------------------------| 
 F|-------------------------6-6-6-6-5-5-5-5-5-5---------------------| 
A#|---------------------------------------------8-8-8-8-8-8-5-5-5-5-| 

 C|-----------------------------------------------------------------| 
 G|-----------------------------------------------------------------| 
D#|-----------------------------------------------------------------| 
A#|-----------------------------------------------------------------| 
 F|-8-8-8-8-8-8-7-7-7-7-7-7-5-5-5-5-4-4-4-4-4-4-4-4-----------------| 
A#|-------------------------------------------------7-7-7-7-7-7-7-7-| 

 C|-------------------------------------------------|--------------------------------------------------| 
 G|-------------------------------------------------|--------------------------------------------------| 
D#|-------------------------------------------------|--------------------------------------------------| 
A#|-------------------------------------------------|--------------------------------------------------| 
 F|----------4--------6-----------------------------|----------4--------6------------------------------| 
A#|-7--4--5-----5--7-----5--5--5--5--5--5-5-5--5--5-|-7--4--5-----5--7-----5--5--5--5-5-5-5-5--5--5--5-| 
    *  *  *     *  *     *  *  *  *  *  * * *  *  *   *  *  *     *  *     *  *  *  * * * * *  *  *  * 

 C|-------------------------------------------|---------------------------------|---------------| 
 G|-------------------------------------------|---------------------------------|---------------| 
D#|-------------------------------------------|---------------------------------|---------------| 
A#|-------------------------------------------|-4----5--------------------------|---------------| 
 F|----------1--------4--1---1---1--1---1--1--|-4----5----0---------------------|---------------| 
A#|-4--1--4-----4--1-----0---0---0--0---0--0--|-4----5----0---1-1-0--1-1-0------|-1-1-0---------| 
    *  *  *     *  *     *   *   *  *   *  *              *   * * *  * * *        * * * 

|--------------------------------------------------------------------------------------------------------| 
|                                          PART 6 (01:34-01:43)                                          | 
|--------------------------------------------------------------------------------------------------------| 

Guitar 1 (w/ dist) 

   1/4            7/8 
 C|--------------|----------------------------------------------|----------------------------------------| 
 G|--------------|----------------------------------------------|----------------------------------------| 
D#|--------------|----------------------------------------------|----------------------------------------| 
A#|--------------|----------------------------------------------|---------------------------------4---7--| 
 F|--------------|-4------------------4-------------------------|-4------------------4------------4---7--| 
A#|-1-1-0--1-1-0-|----3--2--0--1-1-0-----3--1-1-0--1-1-0--1-1-0-|----3--2--0--1-1-0-----3--1-1-0--4---7--| 
    * * *  * * *      *  *  *  * * *     *  * * *  * * *  * * *      *  *  *  * * *     *  * * *  

   1/4            7/8 
 C|--------------|---------------------------------------------|--------------------------------------| 
 G|--------------|---------------------------------------------|--------------------------------------| 
D#|--------------|---------------------------------------------|---------------------6----------------| 
A#|--------------|--------------------8------------------------|-5----------------------8--5----------| 
 F|--------------|-7---------------------10-7------------------|----7-------------------------7--0----| 
A#|-1-1-0--1-1-0-|----6--5--0--4-4-0-----------7--4-4-0--4-4-0-|-------4-4-0--4-4-0--------------1----| 
    * * *  * * *      *  *  *  * * *           *  * * *  * * *         * * *  * * *              * 

   1/4             
 C|--------------| 
 G|--------------| 
D#|--------------| 
A#|--------------| 
 F|-0----0-------| 
A#|-1----1-------| 
    *    * 

Guitar 2 (w/ dist) 

   1/4            7/8 
 C|--------------|----------------------------------------------|----------------------------------------| 
 G|--------------|----------------------------------------------|----------------------------------------| 
D#|--------------|----------------------------------------------|----------------------------------------| 
A#|--------------|----------------------------------------------|---------------------------------1---4--| 
 F|--------------|-4------------------4-------------------------|-4------------------4------------1---4--| 
A#|-1-1-0--1-1-0-|----3--2--0--1-1-0-----3--1-1-0--1-1-0--1-1-0-|----3--2--0--1-1-0-----3--1-1-0--1---4--| 
    * * *  * * *      *  *  *  * * *     *  * * *  * * *  * * *      *  *  *  * * *     *  * * *  

   1/4            7/8 
 C|--------------|---------------------------------------------|--------------------------------------| 
 G|--------------|---------------------------------------------|--------------------------------------| 
D#|--------------|---------------------------------------------|---------------------3----------------| 
A#|--------------|--------------------5------------------------|-2----------------------5--2----------| 
 F|--------------|-4---------------------7--4------------------|----4-------------------------4--0----| 
A#|-1-1-0--1-1-0-|----3--2--0--1-1-0-----------5--1-1-0--1-1-0-|-------1-1-0--1-1-0--------------1----| 
    * * *  * * *      *  *  *  * * *           *  * * *  * * *         * * *  * * *              * 

   1/4  
 C|--------------| 
 G|--------------| 
D#|--------------| 
A#|--------------| 
 F|-0----0-------| 
A#|-1----1-------| 
    *    * 

|--------------------------------------------------------------------------------------------------------| 
|                                          PART 7 (01:43-02:47)                                          | 
|--------------------------------------------------------------------------------------------------------| 

I. Guitar 1 (w/ dist) 

 C|-----------------------|------------------------------| 
 G|-----------------------|------------------------------| 
D#|-----------------------|------------------------------| 
A#|-------------0-----4---|-1----------------------------| 
 F|-1--0--0--0--0-----4---|-1-----3--------6--------3----| 
A#|-1--0--0--0--0-----4---|-1-------h6--5-----5--6-----6-| 
    *  *  *  *                          *     *  *     * 
 C|-----------------------|------------------------------| 
 G|-----------------------|------------------------------| 
D#|-----------------------|------------------------------| 
A#|-------------0-----4---|-1-----1--------4-------------| 
 F|-1--0--0--0--0-----4---|-1-------h3--1-----2--3--5-p0-| 
A#|-1--0--0--0--0-----4---|-1----------------------------| 
    *  *  *  *                          *     *  * 
 C|-------------------------------|-----------------------|-------------------------------|-----------| 
 G|-------------------------------|-----------------------|-------------------------------|-----------| 
D#|-------------------------------|-----------------------|-------------------------------|-----------| 
A#|-------------------------------|-----------------------|-------------------------------|-----------| 
 F|-------------------------------|-----------------------|-------------------------------|-----------| 
A#|-1-p0--0--0--0------1-p0--0--0-|-0----------1-p0--0--0-|-1-p0--0--0--0------1-p0--0--0-|-0---------| 
          *  *               *  *                    *  *         *  *               *  * 

   Guitar 2 (w/ dist) 
                                              .................................. 
 C|---------------|--------|---------------|--------|------|------|------|------| 
 G|---------------|--------|---------------|--------|------|------|------|------| 
D#|-14-----15-s12-|-12-----|-8------7--s8--|-7------|------|------|------|------| 
A#|--x------x---x-|--x-----|-x------x--sx--|-x------|------|------|------|------| 
 F|-12-----13-s10-|-10-----|-6------5--s6--|-5------|------|------|------|------| 
A#|---------------|--------|---------------|--------|------|------|------|------| 

II. Guitar 1 (w/ dist) 

 C|-------------------------------|---------------------|-------------------------------|-----------| 
 G|-------------------------------|---------------------|-------------------------------|-----------| 
D#|-------------------------------|---------------------|-------------------------------|-----------| x2 
A#|-------------------------------|---------------------|-------------------------------|-----------| 
 F|-------------------------------|---------------------|-------------------------------|-----------| 
A#|-1-p0--0--0--0------1-p0--0--0-|-0--------1-p0--0--0-|-1-p0--0--0--0------1-p0--0--0-|-0---------| 
          *  *               *  *                  *  *         *  *               *  * 

 C|-------------------------------|---------------------|-------------------------------|--------------| 
 G|-------------------------------|---------------------|-------------------------------|--------------| 
D#|-------------------------------|---------------------|-------------------------------|--------------| 
A#|-------------------------------|---------------------|-------------------------------|------------0-| 
 F|-------------------------------|---------------------|-------------------------------|-0---0---0--0-| 
A#|-1-p0--0--0--0------1-p0--0--0-|-0--------1-p0--0--0-|-1-p0--0--0--0------1-p0--0--0-|-0---0---0--0-| 
          *  *               *  *                  *  *         *  *               *  *   *   *   * 

    Guitar 2 (w/ dist) 

     ............................... 
 C|--------|-------|-------|-------|--------|-------|-------|-------| 
 G|--------|-------|-------|-------|--------|-------|-------|-------| 
D#|--------|-------|-------|-------|--------|-------|-------|-------| 
A#|-0------|-------|-------|-------|--------|-------|-------|-------| 
 F|-0------|-------|-------|-------|-0------|-------|-------|-------| 
A#|-0------|-------|-------|-------|-0------|-------|-------|-------| 
                                     * 
     ....................... 
 C|--------|-------|-------|--------------| 
 G|--------|-------|-------|--------------| 
D#|--------|-------|-------|--------------| 
A#|-0------|-------|-------|------------0-| 
 F|-0------|-------|-------|-0---0---0--0-| 
A#|-0------|-------|-------|-0---0---0--0-| 
                             *   *   * 

III. Guitar 1 (w/ dist) 

 C|---------------------------------|--------------------------|---------------------------------| 
 G|---------------------------------|--------------------------|---------------------------------| 
D#|---------------------------------|--------------------------|---------------------------------| 
A#|---------------------------------|--------------------------|---------------------------------| 
 F|---------------------------------|-0------------------------|---------------------------------| 
A#|-1-p0--0--0--0--------1-p0--0--0-|-0-------------1-p0--0--0-|-1-p0--0--0--0--------1-p0--0--0-| 
          *  *                 *  *   *                   *  *         *  *                 *  *  
 C|--------------------------|-----------------------|------------------------------| 
 G|--------------------------|-----------------------|------------------------------| 
D#|--------------------------|-----------------------|------------------------------| 
A#|--------------------------|-------------0-----4---|-1----------------------------| 
 F|-0------------------------|-------------0-----4---|-1-----3--------6--------3----| 
A#|-0-------------1-p0--0--0-|-1-p0--0--0--0-----4---|-1-------h6--5-----5--6-----6-| 
    *                   *  *         *  *                          *     *  *     * 
 C|-----------------------|------------------------------|---------------------------------| 
 G|-----------------------|------------------------------|---------------------------------| 
D#|-----------------------|------------------------------|---------------------------------| 
A#|-------------0-----4---|-1-----1--------4-------------|---------------------------------| 
 F|-------------0-----4---|-1-------h3--1-----2--3--5-p0-|---------------------------------| 
A#|-1-p0--0--0--0-----4---|-1----------------------------|-1-p0--0--0--0--------1-p0--0--0-| 
          *  *                          *     *  *               *  *                 *  * 

                                        ............ 
 C|---------------------------------------|------------------------|----------------| 
 G|---------------------------------------|------------------------|----------------| 
D#|---------------------------------------|------------------------|----------------| 
A#|------------------1--------4-----------|---------------3--------|-0--------------| 
 F|--------------------h3--1-----0--2--3--|---------0--0--3---0--0-|-0--------------| 
A#|-0----------0--0-----------------------|---------0--0--3---0--0-|-0--------------| 
               *  *        *     *  *               *  *      *  * 

     Guitar 2 (w/ dist) 

 C|---------------------------------|--------------------------|---------------------------------| 
 G|---------------------------------|--------------------------|---------------------------------| 
D#|---------------------------------|--------------------------|---------------------------------| 
A#|---------------------------------|--------------------------|---------------------------------| 
 F|---------------------------------|-0------------------------|---------------------------------| 
A#|-1-p0--0--0--0--------1-p0--0--0-|-0-------------1-p0--0--0-|-1-p0--0--0--0--------1-p0--0--0-| 
          *  *                 *  *   *                   *  *         *  *                 *  * 
 C|---------------------------------|-----------------------|------------------------------| 
 G|---------------------------------|-----------------------|------------------------------| 
D#|---------------------------------|-----------------------|------------------------------| 
A#|---------------------------------|-------------0-----4---|-1----------------------------| 
 F|-0-------------------------------|-------------0-----4---|-1-----3--------6--------3----| 
A#|-0---0----0----0------1-p0--0--0-|-1-p0--0--0--0-----4---|-1-------h6--5-----5--6-----6-| 
    *                          *  *         *  *                          *     *  *     * 
 C|-----------------------|------------------------------|---------------------------------| 
 G|-----------------------|------------------------------|---------------------------------| 
D#|-----------------------|------------------------------|---------------------------------| 
A#|-------------0-----4---|-1-----1--------4-------------|---------------------------------| 
 F|-------------0-----4---|-1-------h3--1-----2--3--5-p0-|---------------------------------| 
A#|-1-p0--0--0--0-----4---|-1----------------------------|-1-p0--0--0--0--------1-p0--0--0-| 
          *  *                          *     *  *               *  *                 *  * 

                                       .......... 
 C|--------------------------------------|-----------------------|---------------| 
 G|--------------------------------------|-----------------------|---------------| 
D#|--------------------------------------|-----------------------|---------------| 
A#|--------------------------------------|--------------3--------|-0-------------| 
 F|-----------------3--------6-----------|--------0--0--3---0--0-|-0-------------| 
A#|-0----0----0--0----h6--5-----5--6--7--|--------0--0--3---0--0-|-0-------------| 
              *  *        *     *  *              *  *      *  * 
		  

See also:

tabs Deep Purple - Highway Star tabs Deep Purple - Smoke On The Water (Easy Intro) tabs Deep Purple - Space Truckin tabs Deep Purple - Rat Bat Blues tabs Deep Purple - Smoke On Water (ver. 2) tabs Deep Purple - Lazy
e-chords

Other versions:

tabs The Offspring - Intermission tabs Tool - Intermission tabs Upon A Burning Body - Intermission
auto scroll beats size up size down change color hide chords drawings
tab show chords e-chords YouTube Clip e-chords hide all tabs e-chords go to top tab

share