Unwound

The World Is Flat

Unwound

tabs nolevel nolevel

by  AMAN_CLAUDINO

save to print version add songbook text version e-mail correct tuner
chordsukulelecavacokeyboardtabbassdrumsharmonicaflute Guitar Pro
close

there isn't a video lesson for this song

chords

The World Is Flat

	  		







Intro: 
 * play random strings behind the bridge 



Verse: 
e|-------------------------------------2--2--2--0-|| 
B|-------------------------------------0--0--0--0-|| 
G|-4-----x--4-----x--4-----x--4--------4--4--4--4-|| x 3 
D|-x-----x--x-----x--x-----x--x-------------------|| 
A|-3-----x--3-----x--3-----x--3-------------------|| 
E|------------------------------------------------|| 
+ 
e|------------------------------------------------| 
B|-3~-------5~------------------------(0)---------| 
G|-------------------4~-------3~-------4----------| 
D|------------------------------------------------| 
A|------------------------------------------------| 
E|------------------------------------------------| 



Pre-Chorus 
e|------------------------------------------------| 
B|-12----x--13----x--15----x--13----x--12---------| 
G|-x-----x--x-----x--x-----x--x-----x--15b--------| 
D|-14----x--14----x--14----x--14----x--14---------| 
A|------------------------------------------------| 
E|------------------------------------------------| 
+ 
e|-------------------15---------------------------| 
B|-12----x--13----x--13----x--15----x--15----13---| 
G|-x-----x--x-----x--x-----x--x-----x--x-----x----| 
D|-14----x--14----x--14----x--14----x--14----14---| 
A|------------------------------------------------| 
E|------------------------------------------------| 
+ 
e|------------------------------------------------| 
B|-12----x--13----x--15----x--13----x--12---------| 
G|-x-----x--x-----x--x-----x--x-----x--15b--------| 
D|-14----x--14----x--14----x--14----x--14---------| 
A|------------------------------------------------| 
E|------------------------------------------------| 
+ 
e|-------------------15---------------------------| 
B|-12----x--13----x--13----x--15----x--15----13---| 
G|-x-----x--x-----x--x-----x--x-----x--x-----x----| 
D|-14----x--14----x--14----x--14----x--14----14---| 
A|------------------------------------------------| 
E|------------------------------------------------| 
+ 
e|------------------------------------------------| 
B|-12----x--13----x--15----x--13----x--12---------| 
G|-x-----x--x-----x--x-----x--x-----x--15---------| 
D|-14----x--14----x--14----x--14----x--14---------| 
A|------------------------------------------------| 
E|------------------------------------------------| 
+ 
e|------------------------------------------------| 
B|-12----x--13----x--15----x--13----x--12---------| 
G|-x-----x--x-----x--x-----x--x-----x--15---------| 
D|-14----x--14----x--14----x--14----x--14---------| 
A|------------------------------------------------| 
E|------------------------------------------------| 
+ 
e|------------------------------------------------| 
B|-13----x--15----x--17----x--15----x--13---------| 
G|-x-----x--x-----x--x-----x--x-----x--x----------| 
D|-15----x--15----x--15----x--15----x--15---------| 
A|------------------------------------------------| 
E|------------------------------------------------| 
+ 
e|------------------------------------------------| 
B|-8--8--8--8--8--8--8--8--8--8--8--8--8--8--8--0-| 
G|-11-11-11-11-11-11-11-11-11-11-11-11-11-11-11-0-| 
D|------------------------------------------------| 
A|------------------------------------------------| 
E|------------------------------------------------| 



Chorus: 
Guitar I 
e|------------------------------------------------| 
B|------------------------------------------------| 
G|------------------------------------------------| 
D|------------------------------------------------| 
A|-7--------7--------7--------7--------9~---------| 
E|----6~p0-----6~p0-----6~p0-----6~p0-------------| 
+ 
e|------------------------------------------------| 
B|------------------------------------------------| 
G|------------------------------------------------| 
D|------------------------------------------------| 
A|-7--------7--------7--------7-------------------| 
E|----6~p0-----6~p0-----6~p0-----6~p0--10~--------| 
+ 
Guitar II 
e|------------------------------------------------| 
B|------------------------------------------------| 
G|------------------------------------------------| 
D|------------------------------------------------| 
A|-7--------7--------7--------7-------------------| 
E|----6~p0-----6~p0-----6~p0-----6~p0--10~--------| 
+ 
e|------------------------------------------------| 
B|------------------------------------------------| 
G|------------------------------------------------| 
D|------------------------------------------------| 
A|-7--------7--------7--------7--------9~---------| 
E|----6~p0-----6~p0-----6~p0-----6~p0-------------| 



Pre-Chorus Final Bar: 
e|------------------------------------------------| 
B|-8--8--8--8--8--8--8--8--8--8--8--8--8--8--8--8-| 
G|-11-11-11-11-11-11-11-11-11-11-11-11-11-11-11-11| 
D|------------------------------------------------| 
A|------------------------------------------------| 
E|------------------------------------------------| 
+ 
 * ring out (followed by mellotron flourishes) 
e|------------------------------------------------| 
B|-8----------------------------------------------| 
G|-11---------------------------------------------| 
D|------------------------------------------------| 
A|------------------------------------------------| 
E|------------------------------------------------| 



Song Structure: 
Intro 
Verse 
Pre-Chorus 
Chorus x 4 
Verse 
Pre-Chorus 
Chorus x 4 
Verse 
Pre-Chorus w/ Final Bar 



That's it.  Please leave any comments, questions, or requests.  Cheers! 
-Bennyshambles78- 
		  

See also:

tabs Jack Johnson - Good People tabs Creed - One Last Breath tabs Guns N' Roses - Sweet Child o' mine tabs Foo Fighters - Learn to Fly (acoustic version) tabs The Strokes - Reptilia tabs Jack Johnson - Breakdown (intro)
e-chords

Other versions:

tabs Unwound - The World Is Flat
auto scroll beats size up size down change color hide chords drawings
tab show chords e-chords YouTube Clip e-chords hide all tabs e-chords go to top tab

share with facebook