Unknown

You are the only one Tab

Unknown

Difficulty: nolevelnolevel

by Mikalsen49

tuner correct add songbook print version text version save to e-mail
chordsukulelecavacokeyboardtabbassdrumsharmonicsflute Guitar Pro
close

there isn't a video lesson for this song

request
chords

You are the only one

  		|-7--7--7--7--5--3--3--2--0--0--3--7--7--7--12--12--12--12--10--8--7--8--5--7--5--5--7--8--7--8--11--8--7--7--5--3--2--2--2--2--2--0--0--3--7--7--7-- 
|--0--0--0--0--0--0--0--0--0--0--0--0--0--0---0---0---0---0---0--0--0--5--5--5--5--5--5--5--7--7---7--7--7--0--0--0--0--0--0--0--0--0--0--0--0--0--0- 
|---0--0--0--0--0--0--0--0--0--0--0--0--0--0---0---0---0---0---0--0--0--5--5--5--5--5--5--5--8--8---8--8--7--0--0--0--0--2--2--2--2--0--0--0--0--0--0 
|---------------------------------------------------------------------------------------------------------------------------------------------------- 
|---------------------------------------------------------------------0-----------0------------------------------------2--------2-------------------- 
|-0--------0--------0--------------0--------0-----------0----------------------------------7-----7---------0-----------------------0--------0-------- 





|-7--7--7--7--5--3--3--2--0--0--3--7--7--7--12--12--12--12--10--8--7--8--5--7--5--5--7--8--7--8--11--8--7--7--5--3--2--2--2--2--2--0--0---0-> 
|--0--0--0--0--0--0--0--0--0--0--0--0--0--0---0---0---0---0---0--0--0--5--5--5--5--5--5--5--7--7---7--7--7--0--0--0--0--0--0--0--0--0--0--0-> 
|---0--0--0--0--0--0--0--0--0--0--0--0--0--0---0---0---0---0---0--0--0--5--5--5--5--5--5--5--8--8---8--8--7--0--0--0--0--2--2--2--2--0--0-0-> 
|-----------------------------------------------------------------------------------------------------------------------------------------2-> 
|---------------------------------------------------------------------0-----------0------------------------------------2--------2---------2-> 
|-0--------0--------0--------------0--------0-----------0----------------------------------7-----7---------0-----------------------0------0-> 

	  

Search Paypal
auto scroll beats size up size down change color hide chords drawings
tab show chords e-chords YouTube Clip e-chords hide all tabs e-chords go to top tab

share with facebook