United Live

Hosanna

United Live

tabs

by  BASSFREAK111

save to print version add songbook text version e-mail correct tuner
chordsukulelecavacokeyboardtabbassdrumsharmonicaflute Guitar Pro
close

there isn't a video lesson for this song

chords

Hosanna

	  		Hosanna 
By United Live 
"All of the Above" 

~-let ring 


Intro 

G-------------------------------------- 
D-------------------------------------- 
A--4(x16)------------------------------ (x2) 
E----------0(x16)--2(x16)--4(x16)------ 

Verse 1A 

G-------------------------------------- 
D-------------------------------------- 
A------4~--------2~-----4(x32)--------- 
E--0~-------2~------------------------- 

Verse 2A 

G-------------------------------------- 
D-------------------------------------- 
A----------4(x32)-----------2(x16)----- 
E--0(x32)-----------2(x16)------------- 


Chorus 

G---------------------------------------- 
D---------------------------------------- 
A--11~--12~--14~--16~--12~--16~--14~14~-- 
E---------------------------------------- 

G----------------------------------------- 
D----------------------------------------- 
A--11~--12~--14~--16~--12~--14~---4(x32)-- 
E----------------------------------------- 

Verse 

G-------------------------------------- 
D--------------------------------------(x2) 
A----------4(x32)-----------2(x16)----- 
E--0(x32)-----------2(x16)------------- 

Chorus 

G---------------------------------------------- 
D---------------------------------------------- 
A------0000--2222--4444--0000--4444--22222222-- 
E-0000----------------------------------------- 

G--------------------------------------------- 
D--------------------------------------------- 
A------0000--2222--4444--0000--2222----------- 
E-0000---------------------------------------- 

Guitar solo 

G-------------------------------------- 
D-------------------------------------- 
A--4(x8)------------------------------- (x2) 
E----------0(x8)--2(x8)--4(x8)--------- 

Bridge 

G----------------------------------------------------- 
D----------------------------------------------------- 
A--0(x8)--2(x8)--------4(x8)--0(x8)--2(x8)--4(x16)---- 
E----------------0(x8)-------------------------------- 

G----------------------------------------------------- 
D----------------------------------------------------- 
A--0(x8)--2(x8)--------4(x8)--0(x8)--2(x4)------------ 
E----------------0(x8)-------------------------------- 


Chorus 

G---------------------------------------------- 
D---------------------------------------------- 
A------0000--2222--4444--0000--4444--22222222-- 
E-0000----------------------------------------- 

G----------------------------------------------- 
D----------------------------------------------- 
A------0000--2222--4444--0000--2222--end-on-7~-- 
E-0000------------------------------------------ 






		  

auto scroll beats size up size down change color hide chords drawings
tab show chords e-chords YouTube Clip e-chords hide all tabs e-chords go to top tab

share