Underoath

Writings On The Walls

Underoath

tabs Expert expert

by  INDESTRUCTIBLE

save to print version add songbook text version e-mail correct tuner
chordsukulelecavacokeyboardtabbassdrumsharmonicaflute Guitar Pro
close

there isn't a video lesson for this song

chords

Writings On The Walls

	  		Intro 

Guitar 1 
e|-----------------------------------|  e|-----------------------------------| 
B|-6-----6-----8-----6---------------|  B|-6-----6-----8-----6~--------------| 
G|-5-x16-5-x16-7-x16-5-x16-----------|  G|-5-x16-5-x16-7-x16-5~--------------| 
D|-x-----x-----x-----x---------------|  D|-x-----x-----x-----x---------------| 
A|-5-----x-----x-----3---------------|  A|-5-----x-----x-----3~--------------| 
D|-------5-----8---------------------|  D|-------5-----8---------------------| 

Verse  

Guitar 1  
e|---------------------------------------------------------------------------| 
B|---------------------------------------15--------15---------15-------------| 
G|-14--14--14--14--12--12--14--14------17--17----17--17-----17--17-----------| 
D|---15--15--15--15--15--15--15--15--15------15~-------15~-------------------| 
A|---------------------------------------------------------------------------| 
D|---------------------------------------------------------------------------| 

e|-17--17-20-17-----17--17-18-17----15--15-17-15----15--15-17-15-------------| 
B|---18---------18~---18--------18~---18--------18~---18--------18\----------| 
G|---------------------------------------------------------------------------| 
D|---------------------------------------------------------------------------| 
A|---------------------------------------------------------------------------| 
D|---------------------------------------------------------------------------| 

Guitar 2 
e|---------------------------------------------------------------------------| 
B|---------------------------------------------------------------------------| 
G|-7-----7-----10----12------------------------------------------------------| 
D|-7-x16-5-----8-----10------------------------------------------------------| 
A|-5-----5-x16-8-x16-10-x16--------------------------------------------------| 
D|-------5-----8-----10------------------------------------------------------| 

Verse 2 

Guitar 1 
e|-----------------------------------|  e|---------------------------8-8-5-5-| 
B|---6~----6-6-6-6-6-6-6-6-10-10-8-8-|  B|---6~-----6-6-6-6-6-6-6-6-6-6-6-6--| 
G|-----9~-9-9-9-9-9-9-9-9-9--9--9-9--|  G|-----9~--9-9-9-9-9-9-9-9-----------| 
D|-0---------------------------------|  D|-0---------------------------------| 
A|-0---------------------------------|  A|-0---------------------------------| 
D|-0---------------------------------|  D|-0---------------------------------| 

Guitar 2 
e|-----------------------------------|  e|-----------------------------------| 
B|-----------------------------------|  B|-----------------------------------| 
G|-7-10-9~---------------------------|  G|-7---5~---------------/12-12-12-12-| 
D|-7-x--x----------------------------|  D|-7-5-5~----------------x--x--x--x--| 
A|-5-8--7~---------------------------|  A|-5-5-3~---------------/10-10-10-10-| 
D|-----------------------------------|  D|---5-------------------------------| 

Pre-Chorus 

Guitar 1       
e|-----------------------------------|  e|-----------------------------------| 
B|-6---------------6-----------------|  B|-6---------------6-----------------| 
G|-9---------------9-----------------|  G|-9---------------9-----------------| 
D|-0-x32-----------x-x32-------------|  D|-0-x32-----------x-x32-------------| 
A|-0---------------x-----------------|  A|-0---------------x-----------------| 
D|-0---------------x-----------------|  D|-0---------------x-----------------| 
    

Guitar 2 
e|---------------------------------------------------------------------------| 
B|---------------------8--8--8--8--8--8--8--8--------------------------------| 
G|-9-----10----12----10-10-10-10-10-10-10-10---------------------------------| 
D|-x-x16-x--x8-x--x8---------------------------------------------------------| 
A|-7-----8-----10------------------------------------------------------------| 
D|---------------------------------------------------------------------------| 


e|---------------------------------------------------------------------------| 
B|---------------------------10--10--10--10--10--10--10--10------------------| 
G|-9-----10----12----14----12--12--12--12--12--12--12--12--------------------| 
D|-x-x16-x--x8-x--x4-x--x4---------------------------------------------------| 
A|-7-----8-----10----12------------------------------------------------------| 
D|---------------------------------------------------------------------------| 



Guitar 1  
e|-----------------------------------|  e|-----------------------------------| 
B|-----------------------------------|  B|-----------------------------------| 
G|-----------------------------------|  G|-----------------------------------| 
D|-0-0--0-0-3---3--------------------|  D|-3-3-3-3-3-3-3-3-3-3---------------| 
A|-0-0--0-0--7--7-x32----------------|  A|-7b7b7b7b7b8-5-5-5-5---------------| 
D|-0-0--0-0--------------------------|  D|-----------------------------------| 
               
e|---------------------------------------------------------------------------| 
B|---9*-------------------------6--------------------------------------------| 
G|-9*--9*--9/16\9--9~--9--9/14--9b10-----------------------------------------| 
D|---------------------------------------------------------------------------| 
A|---------------------------------------------------------------------------| 
D|---------------------------------------------------------------------------| 


Guitar 1 
e|---------------------------------------------------------------------------| 
B|---------------------------------------------------------------------------| 
G|---------------------------------------------------------------------------| 
D|-0-0--0-0-3-3-3-3-3-3-3-3-3-3-3-3-3-3-3-3-3-3-3-3-3-3-3-3-3-3-3-3-3-3-3-3--| 
A|-0-0--0-0-7-7-7-7-7-7-7-7-7-7-7-7-7-7-7-7-7-7-7-7b7b7b7b7b7b7b7b8-5-5-5-5--| 
D|-0-0--0-0------------------------------------------------------------------| 

Guitar 2 
e|-----------------------------------------------------------------------8-8-| 
B|----------6-6-6-6-6-6-6-6-6-6-6-6-6-6-6-6-6-6-6-6-6-6-6-6-6-6-6-6--6-6-6-6-| 
G|----------9-9-9-9-9-9-9-9-9-9-9-9-9-9-9-9-9-9-9-9b9b9b9b9b9b9b9b10-7-7-7-7-| 
D|-0-0--0-0------------------------------------------------------------------| 
A|-0-0--0-0------------------------------------------------------------------| 
D|-0-0--0-0------------------------------------------------------------------| 

Both Guitars 
e|-----------------------------------| 
B|-----------------------------------| 
G|-----------------------------------| 
D|-0-0--0-0--------------------------|  
A|-0-0--0-0--------------------------| 
D|-0-0--0-0--------------------------| 



Guitar 1 
e|---------------------------------------------------------------------------| 
B|---------------------------------------------------------------------------| 
G|---------------------------------------------------------------------------| 
D|-8-8-8~--5-5-5~--0-0-0~--0~------------------------------------------------| 
A|-8-8-8~--5-5-5~--0-0-0~--0~------------------------------------------------| 
D|-8-8-8~--5-5-5~--0-0-0~--0~------------------------------------------------| 

Guitar 2 
e|---------------------------------------------------------------------------| 
B|------------10~------------------------------------------------------------| 
G|-7~-9~-10~------12~-10~---------10~-12~-10~--------------------------------| 
D|-x--x--x----------------12~-12~--------------------------------------------| 
A|-5~-7~-8~------------------------------------------------------------------| 
D|---------------------------------------------------------------------------| 

e|----------------------------------17~------------------17~-----------------| 
B|--------------------------------------15~----------15~---------------------| 
G|-9~-10~----------------------14~----------17~--17~-------------------------| 
D|-x--x-------15~-17~--15~-17~-----------------------------------------------| 
A|-7~-8~--17~----------------------------------------------------------------| 
D|---------------------------------------------------------------------------| 

Guitar 3 
e|---------------------------------------------------------------------------| 
B|---------13~---------------------------------------------------------------| 
G|-----10~-----10~-----10~---------------------------------------------------| 
D|-12~-------------12~-------------------------------------------------------| 
A|---------------------------------------------------------------------------| 
D|---------------------------------------------------------------------------| 

e|-----------------------------------| e|------------------------------------| 
B|-----------------------------------| B|------------------------------------| 
G|-7~-5~-7~-9~-5~--------------------| G|-7~-5~-7~-9~-5~---------------------| 
D|-----------------------------------| D|------------------------------------| 
A|-----------------------------------| A|------------------------------------| 
D|-----------------------------------| D|------------------------------------| 

Guitar 2 
e|-----------------------------------| e|------------------------------------| 
B|-----------------------------------| B|------------------------------------| 
G|-----------------------------------| G|------------------------------------| 
D|-----------------------------------| D|------------------------------------| 
A|-5~----5~-7~-8~--------------------| A|-5~----5~-8~------------------------| 
D|----5~-----------------------------| D|----5~-------10~--------------------| 

Outro 

Guitar 1 
e|-----------------------------------|  e|-----------------------------------| 
B|-----------------------------------|  B|-----------------------------------| 
G|-----------------------------------|  G|-----------------------------------| 
D|-0-0-3----0-0--0-0--0-0-0----------|  D|-0-0-3----0-0--0-0--0-0-3---0~-----| 
A|-0-0-7b8--0-0--0-0--0-0-0----------|  A|-0-0-7b8--0-0--0-0--0-0-7b8-0~-----| 
D|-0-0------0-0--0-0--0-0-0----------|  D|-0-0------0-0--0-0--0-0-----0~-----| 

Guitar 2 
e|-----------------------------------|  e|-----------------------------------| 
B|-----6-----------------------------|  B|-----6------------------6----------| 
G|-----9b10--------------------------|  G|-----9b10---------------9b10-------| 
D|-0-0------0-0--0-0--0-0-0----------|  D|-0-0------0-0--0-0--0-0------0~----| 
A|-0-0------0-0--0-0--0-0-0----------|  A|-0-0------0-0--0-0--0-0------0~----| 
D|-0-0------0-0--0-0--0-0-0----------|  D|-0-0------0-0--0-0--0-0------0~----| 
		  

See also:

tabs Pantera - Cemetary Gates tabs Twisted Syster - Were not gonna take tabs Marilyn Manson - Disposable Teens tabs Dream Theater - Endless Sacrifice tabs Manowar - Brothers Of Metal tabs Alice Cooper - Poison
e-chords

Other versions:

tabs Underoath - Writings On The Walls
auto scroll beats size up size down change color hide chords drawings
tab show chords e-chords YouTube Clip e-chords hide all tabs e-chords go to top tab

share