UltraSpank

home > UltraSpank

Jackass Tab

UltraSpank

Difficulty: nolevelnolevel

by alyslima

tuner correct add songbook print version text version save to e-mail
chordsukulelecavacokeyboardtabbassdrumsharmonicsflute Guitar Pro
chords

Jackass

Key:  D# More
Jackass Key A#A#
Jackass Key BB
Jackass Key CC
Jackass Key C#C#(one step down)
Jackass Key DD(half step down)
Jackass Key D#D#(original key)
Jackass Key EE(half step up)
Jackass Key FF(one step up)
Jackass Key F#F#
Jackass Key GG
Jackass Key G#G#
Jackass Key AA
  		
RIFF 1: 
D#|---------------------------------------------------| 
A#|---------------------------------------------------| 
F#|---------------------------------------------------| 
C#|-1-0--1-0-0--3-5-3--0-4-1---1-0--1-0-0--3-5-3--1-1-| 
G#|-1-0--1-0-0--3-5-3--0-4-1---1-0--1-0-0--3-5-3--1-1-| 
C#|-1-0--1-0-0--3-5-3--0-4-1---1-0--1-0-0--3-5-3--1-1-| 

RIFF 2: 
D#|-----------------------------------------------------| 
A#|-----------------------------------------------------| 
F#|-----------------------------------------------------| 
C#|-1-0--1-0-0--3-5-3--0-4-1---1-0--1-0-0--3-5-3--1----0| 
G#|-1-0--1-0-0--3-5-3--0-4-1---1-0--1-0-0--3-5-3--1----0| 
C#|-1-0--1-0-0--3-5-3--0-4-1---1-0--1-0-0--3-5-3--1----0| 

FILL 1: 
D#|----------------| 
A#|----------------| 
F#|----------------| 
C#|-----7----6-----| 
G#|--5-----------7-| 
C#|----------------| 

RIFF 3: 
D#|---------------------------------| 
A#|---------------------------------| 
F#|---------------------------------| 
C#|-0-7-10-0-6-9-0--0-3-0-1-4-1-----| 
G#|-0-7-10-0-6-9-0--0-3-0-1-4-1-----| 
C#|-0-7-10-0-6-9-0--0-3-0-1-4-1-----| 

RIFF 4: 
D#|---------------------------------------------------| 
A#|---------------------------------------------------| 
F#|---------------------------------------------------| 
C#|---------------------------------------------------| 
G#|---------------------------------------------------| 
C#|-1-0--1-0-0--3-5-3--0-4-1---1-0--1-0-0--3-5-3--1-1-| 
(palm mute) 


SEQUENCE 
 
	  

Search Paypal
auto scroll beats size up size down change color hide chords drawings
tab show chords e-chords YouTube Clip e-chords hide all tabs e-chords go to top tab