Ty Segall

Swag

Ty Segall

tabs

by  TERR_SCHMITZ

save to print version add songbook text version e-mail correct tuner
chordsukulelecavacokeyboardtabbassdrumsharmonicaflute Guitar Pro
close

there isn't a video lesson for this song

chords

Swag

	  		Intro 
e|------------------------------------------------8-11-8----8-------------------| 
B|------5-6-8-6-5-6-5---5-----------5-6-8-6-5-6-5--------11---------------------| 
G|--5-6---------------6---6-5---5-6------------------------------5-----------5--| 
D|---------------------------------------------------------------5--6--3--3--5--| 
A|---------------------------------------------------------------3--6--3--3--3--| 
E|------------------------------------------------------------------4--1--1-----| 

Verse 
e|------------------------------------------------------------------------------| 
B|------------------------------------------------------------------------------| 
G|--5--5--5--5--5--5--5--5--5--5--5--5--5--5--5--5--5--5---------5-----------5--| 
D|--5--5--5--5--5--5--5--5--5--5--5--5--5--5--5--5--5--5---------5--6--3--3--5--| 
A|--3--3--3--3--3--3--3--3--3--3--3--3--3--3--3--3--3--3---------3--6--3--3--3--| 
E|------------------------------------------------------------------4--1--1-----| 

Instrumental 
e|----------------------------| 
B|--5---4---5--4--5--4--------| 
G|---------------------5-5-5--| 
D|----------------------------| 
A|----------------------------| 
E|----------------------------| 

Chorus 
e|---------------------------------------------------------------------------| 
B|---------------------------------------------------------------------------| 
G|--3--3--3--5--5--5--3--3--3--5--5--5---------------------------------------| 
D|--3--3--3--5--5--5--3--3--3--5--5--5--6--6--6--3--3--3--6--6--6--3--3--3---| 
A|--1--1--1--3--3--3--1--1--1--3--3--3--6--6--6--3--3--3--6--6--6--3--3--3---| 
E|--------------------------------------4--4--4--1--1--1--4--4--4--1--1--1---| 
		  

See also:

tabs Red Hot Chili Peppers - Under the brigde tabs Red Hot Chili Peppers - Under the Bridge (completo) tabs 311 - The Love Song tabs Red Hot Chili Peppers - Live in Slane Castle tabs No Doubt - don't speak solo tabs Red Hot Chili Peppers - Under The Bridge Acoustic
e-chords

Other versions:

tabs Ty Segall - Swag tabs Flogging Molly - Swagger
auto scroll beats size up size down change color hide chords drawings
tab show chords e-chords YouTube Clip e-chords hide all tabs e-chords go to top tab

share