Ty Segall

Pretty Miss Titty

Ty Segall

tabs

by  EDUCASTILHO

save to print version add songbook text version e-mail correct tuner
chordsukulelecavacokeyboardtabbassdrumsharmonicaflute Guitar Pro
close

there isn't a video lesson for this song

chords

Pretty Miss Titty

	  		Intro 

d|-1--1--1--1---0------0---0------0-----------------------------------| 
A|-3--2--1--0---1------1---1------1-----------------------------------| 
F|-2--2--2--2-- 2------0---0(h)2--0-----------------------------------| 
C|-0--0--0--0---2------2---2------2-----------------------------------| x2 
G|--------------0------x---0------x-----------------------------------| 
D|---------------------3----------3-----------------------------------| 


verse 1 

d|-1--1--1--1---0------0---0------0-----------------------------------| 
A|-3--2--1--0---1------1---1------1-----------------------------------| 
F|-2--2--2--2---2------0---0(h)2--0-----------------------------------| 
C|-0--0--0--0---2------2---0(h)2--2-----------------------------------| x2 
G|--------------0------x---0------x-----------------------------------| 
D|---------------------3----------3-----------------------------------| 


Chorus 

d|-0--0------0---0--0------0------------------------------------------| 
A|-1--0--1---1---0--0(h)3--3------------------------------------------| 
F|-0--1--2---0---1--1------1------------------------------------------| 
C|-2--2--3---2---0--0------0(h)2--------------------------------------| x2 
G|-3--2--3---3---2--2------0(h)2--------------------------------------| 
D|-3--0--1---3---0--0------0------------------------------------------| 


verse 2 

d|-1--1--1--1---0------0---0------0-----------------------------------| 
A|-3--2--1--0---1------1---1------1-----------------------------------| 
F|-2--2--2--2---0(h)2--0---0(h)2--0-----------------------------------| 
C|-0--0--0--0---2------2---0(h)2--2-----------------------------------| x2 
G|--------------0------x---0------x-----------------------------------| 
D|---------------------3----------3-----------------------------------| 


Chorus 

d|-0--0------0---0--0------0------------------------------------------| 
A|-1--0--1---1---0--0(h)3--3------------------------------------------| 
F|-0--1--2---0---1--1------1------------------------------------------| 
C|-2--2--3---2---0--0------0(h)2--------------------------------------| x2 
G|-3--2--3---3---2--2------0(h)2--------------------------------------| 
D|-3--0--1---3---0--0------0------------------------------------------| 


Bridge 


d|------------/7--|---------------9--------------------4--------------| 
A|-0--0-------/10-|---2---6---7---12---2---6---7---3---6---5----------| 
F|-3--3-------/8--|---3---7---8---10---3---7---8---4---4---6----------| 
C|-4--4-------/7--|---2---6---7---9----2---6---7---3---6---5----------| x1 
G|-4--4-------/9--|---4---8---9---11---4---8---9---5---4---7----------| 
D|-2--0(h)2---/7--|---2---6---7---9----2---6---7---3---4---5----------| 


verse 3 

d|-1--1--1--1---0------0---0------0-----------------------------------| 
A|-3--2--1--0---1------1---1------1-----------------------------------| 
F|-2--2--2--2---0(h)2--0---0(h)2--0-----------------------------------| 
C|-0--0--0--0---2------2---0(h)2--2-----------------------------------| x2 
G|--------------0------x---0------x-----------------------------------| 
D|---------------------3----------3-----------------------------------| 


Chorus 

d|-0--0------0---0--0------0------------------------------------------| 
A|-1--0--1---1---0--0(h)3--3------------------------------------------| 
F|-0--1--2---0---1--1------1------------------------------------------| 
C|-2--2--3---2---0--0------0(h)2--------------------------------------| x4 
G|-3--2--3---3---2--2------0(h)2--------------------------------------| 
D|-3--0--1---3---0--0------0------------------------------------------| 


Outro 

d|-1--1--1--1---0-------0---0-----------------------------------------| 
A|-3--2--1--0---1-------1---1-----------------------------------------| 
F|-2--2--2--2---0(h)2---0---2-----------------------------------------| 
C|-0--0--0--0---0(h)2---2---2-----------------------------------------| x1 
G|--------------0-------x---0-----------------------------------------| 
D|----------------------3---------------------------------------------| 



*********************************** 

| x   Dead note 
| /   Slide-up 
| h   Hammer-on 

*********************************** 
		  

See also:

tabs Red Hot Chili Peppers - Under the brigde tabs Red Hot Chili Peppers - Under the Bridge (completo) tabs 311 - The Love Song tabs Red Hot Chili Peppers - Live in Slane Castle tabs No Doubt - don't speak solo tabs Red Hot Chili Peppers - Under The Bridge Acoustic
e-chords

Other versions:

tabs Ty Segall - Pretty Miss Titty
auto scroll beats size up size down change color hide chords drawings
tab show chords e-chords YouTube Clip e-chords hide all tabs e-chords go to top tab

share