Twin Atlantic

Old Grey Face

Twin Atlantic

tabs

by  ALYSLIMA

save to print version add songbook text version e-mail correct tuner
chordsukulelecavacokeyboardtabbassdrumsharmonicaflute Guitar Pro
close

there isn't a video lesson for this song

chords

Old Grey Face

	  		  

Verse: 

Gtr I (Light dist.) 

e|---------------------| 
B|---------------------| 
G|3-3-333-3------------|  4x 
D|3-3-333-3--0000-0000-| 
A|1-1-111-1--0000-0000-| 
D|-----------0000-0000-| 

 

Gtr II (Light dist.) 

e|---------------| 
B|---------------| 
G|3-3-333-3------| 
D|3-3-333-3--0-0-| 
A|1-1-111-1--1-1-| 
D|-----------0-0-| 

Chorus: 

Both Gtrs 

e|---------------------------------------------------------------------------| 
B|---------------------------------------------------------------------------| 
G|33333333-55555555----------88888888-33333333-55555555----------8-8-8-------| 
D|33333333-55555555-00000000-88888888-33333333-55555555-00000000-8-8-8-------| 
A|11111111-33333333-00000000-66666666-11111111-33333333-00000000-6-6-6-------| 
D|------------------00000000----------------------------00000000-------------| 

Verse: 

Gtr I (Light dist.) 

e|---------------------| 
B|---------------------| 
G|3-3-333-3------------|  4x 
D|3-3-333-3--0000-0000-| 
A|1-1-111-1--0000-0000-| 
D|-----------0000-0000-| 



Gtr 1 (light dist.) 

e|-----------| 
B|-----------| 
G|-----------| 
D|0000-0000--| 
A|0000-0000--| 
D|0000-0000--| 


Chorus: 

Both Gtrs 

e|--------------------------------------------------------------------------| 
B|--------------------------------------------------------------------------| 
G|33333333-55555555----------88888888-33333333-55555555----------8-8-8-8-8-8| 
D|33333333-55555555-00000000-88888888-33333333-55555555-00000000-8-8-8-8-8-8| 
A|11111111-33333333-00000000-66666666-11111111-33333333-00000000-6-6-6-6-6-6| 
E|------------------00000000----------------------------00000000------------| 

Post-Chorus: 

Gtr I 

e|--------------------------------------------------------------------------| 
B|--------------------------------------------------------------------------| 
G|15-----------14-15-17-14-15-14-15-17--15------------14-15-17--7-7-7-101010| 
D|--------------------------------------------------------------7-7-7-101010| 
A|----13---12-13-----------------------------13--12-13----------5-5-5-8-8-8-| 
D|--------------------------------------------------------------------------| 

Gtr II 

e|---------------------------------------------------------------------------| 
B|---------------------------------------------------------------------------| 
G|33333333-55555555----------88888888-33333333-55555555----------7-7-7-101010| 
D|33333333-55555555-00000000-88888888-33333333-55555555-00000000-7-7-7-101010| 
A|11111111-33333333-00000000-66666666-11111111-33333333-00000000-5-5-5-8-8-8-| 
D|------------------00000000----------------------------00000000-------------| 

Pause 

Bridge: 



Gtr II 

e|---------------------------------------------------------------------------| 
B|---------------------------------------------------------------------------| 
G|---------------------------------------------------------------------------| 
D|--------0----------3----------5---33-11---------0----------3----------5----| 
A|5-3-0---0--5-3-0---3----5-3-0-5---33-11-5-3-0---0--5-3-0---3----5-3-0-5----| 
D|------5-0--------5-3----------5---33-11-------5-0--------5-3----------5----| 


e|-----------| 
B|-----------| 
G|-----------| 
D|3-3-3-1-1-1| 
A|3-3-3-1-1-1| 
D|3-3-3-1-1-1| 

Gtr I 

                        

e|22-----------------22------------------------------------18---20---21------| 
B|----------15---------------15-----15---17--18--20-21-22--------------------| 
G|---------------------------------------------------------------------------| 
D|---------------------------------------------------------------------------| 
A|---------------------------------------------------------------------------| 
D|---------------------------------------------------------------------------| 

Gtr II 

e|---------------------------------------------------------------------------| 
B|---------------------------------------------------------------------------| 
G|---------------------------------------------------------------------------| 
D|--------0----------3----------5---33-11---------0----------3----------5----| 
A|5-3-0---0--5-3-0---3----5-3-0-5---33-11-5-3-0---0--5-3-0---3----5-3-0-5----| 
D|------5-0--------5-3----------5---33-11-------5-0--------5-3----------5----| 


e|--------------------| 
B|--------------------| 
G|--------------------| 
D|33-11-11-11-11-11-11| 
A|33-11-11-11-11-11-11| 
D|33-11-11-11-11-11-11| 

Chorus  

Both Gtrs 

e|---------------------------------------------------------------------------| 
B|---------------------------------------------------------------------------| 
G|55555555-77777777----------1010101010101010-55555555-77777777--------------| 
D|55555555-77777777-22222222-1010101010101010-55555555-77777777-22222222-----| 
A|33333333-55555555-22222222-8-8-8-8-8-8-8-8--33333333-55555555-22222222-----| 
D|------------------22222222------------------------------------22222222-----| 


e|-----------------| 
B|-----------------| 
G|10-10-10-10-10-10| 
D|10-10-10-10-10-10| 
A|8--8--8--8--8--8-| 
D|-----------------| 

Post-chorus  

Gtr I 

e|--------------------------------------------------------------------| 
B|--------------------------------------------------------------------| 
G|17-----------16-17-19-16-17-16-17-19--17------------16-17-19--101010| 
D|--------------------------------------------------------------101010| 
A|----15---14-15-----------------------------15--14-15----------8-8-8-| 
D|--------------------------------------------------------------------| 


Gtr II 
e|---------------------------------------------------------------------------| 
B|---------------------------------------------------------------------------| 
G|55555555-77777777----------1010101010101010-55555555-77777777--------------| 
D|55555555-77777777-22222222-1010101010101010-55555555-77777777-22222222-----| 
A|33333333-55555555-22222222-8-8-8-8-8-8-8-8--33333333-55555555-22222222-----| 
D|------------------22222222------------------------------------22222222-----| 


e|--------| 
B|--------| 
G|10-10-10| 
D|10-10-10| 
A|8--8--8-| 
D|--------| 
		  

See also:

tabs Biffy Clyro - Thunder Monster tabs Twin Atlantic - The Ghost Of Eddie tabs Biffy Clyro - Sorry And Thanks tabs Biffy Clyro - Eyelids tabs Frightened Rabbit - Head Rolls Off tabs Biffy Clyro - Picture A Knife Fight
e-chords

Other versions:

tabs Twin Atlantic - Old Grey Face
auto scroll beats size up size down change color hide chords drawings
tab show chords e-chords YouTube Clip e-chords hide all tabs e-chords go to top tab

share