Twin Atlantic

No Sleep

Twin Atlantic

tabs

by  ANDRSOUZA

save to print version add songbook text version e-mail correct tuner
chordsukulelecavacokeyboardtabbassdrumsharmonicaflute Guitar Pro
close

there isn't a video lesson for this song

chords

No Sleep

	  		
Intro 0:00 
e|---------------------------------------------------------------------------| 
B|---------------------------------------------------------------------------| 
G|---------------------------------------------------------------------------| 
D|---------------------------------------------------------------------------| 
A|------5--7-----10-----7-----5h7---------5--7-----10--7------5--7-----------| 
E|---0--------0------0-----0-----------0--------0---------0------------------| 

e|---------------------------------------------------------------------------| 
B|---------------------------------------------------------------------------| 
G|---------------------------------------------------------------------------| 
D|---------------------------------------------------------------------------| 
A|------5--7-----10-----7-----5h7--------------------------------------------| 
E|---0--------0------0-----0-----------0--3--5--0--3--5--0--3--5-------------| x2 



verse 1 0:19 
power chords, rhythm changes a little between verses 
e|-------------|----------------| 
B|-------------|----------------| 
G|---9-----4---|---7------------| 
D|---9-----4---|---7-----7------| 
A|---7-----2---|---5-----7------| 
E|-------------|---------5------| x4 



Pre-Chorus (same as intro) 0:38 
e|---------------------------------------------------------------------------| 
B|---------------------------------------------------------------------------| 
G|---------------------------------------------------------------------------| 
D|---------------------------------------------------------------------------| 
A|------5--7-----10-----7-----5h7---------5--7-----10--7------5--7-----------| 
E|---0--------0------0-----0-----------0--------0---------0------------------| 

e|---------------------------------------------------------------------------| 
B|---------------------------------------------------------------------------| 
G|---------------------------------------------------------------------------| 
D|---------------------------------------------------------------------------| 
A|------5--7-----10-----7-----5h7--------------------------------------------| 
E|---0--------0------0-----0-----------0--3--5--0--3--5--0--3--5-------------| 



Chorus 0:48 
e|---------------------------------------------------------------------------| 
B|---------------------------------------------------------------------------| 
G|---------------------------------------------------------------------------| 
D|---------------------------------------------------------------------------| 
A|------5--7-----10-----7-----5h7---------5--7-----10--7------5--7-----------| 
E|---0--------0------0-----0-----------0--------0---------0------------------| 

e|---------------------------------------------------------------------------| 
B|---------------------------------------------------------------------------| 
G|---------------------------------------------------------------------------| 
D|---------------------------------------------------------------------------| 
A|------5--7-----10-----7-----5h7--------------------------------------------| 
E|---0--------0------0-----0-----------0--3--5--0--3--5--0--3--5-------------| 

e|---------------------------------------------------------------------------| 
B|---------------------------------------------------------------------------| 
G|---------------------------------------------------------------------------| 
D|------------------------------5-5-5-5--7-7-7-7-----------------------------| 
A|---------7--5--7--10--7--5----5-5-5-5--7-7-7-7-----------------------------| 
E|---0--0-----------------------3-3-3-3--5-5-5-5-----------------------------| 

e|---------------------------------------------------------------------------| 
B|---------------------------------------------------------------------------| 
G|---------------------------------------------------------------------------| 
D|------------------------------5-5-5---7-7-7--------------------------------| 
A|---------7--5--7--10--7--5----5-5-5---7-7-7--------------------------------| 
E|---0--0-----------------------3-3-3---5-5-5--6p5p3-------------------------| 



verse 2 1:10 
power chords, rhythm changes a little between verses 
e|-------------|-----------------| 
B|-------------|-----------------| 
G|---9-----4---|---7-------------| 
D|---9-----4---|---7-----7-------| 
A|---7-----2---|---5-----7-------| 
E|-------------|---------5-------| x4 



Pre-Chorus 2 1:29 
e|---------------------------------------------------------------------------| 
B|---------------------------------------------------------------------------| 
G|---------------------------------------------------------------------------| 
D|---------------------------------------------------------------------------| 
A|------5--7-----10-----7-----5h7---------5--7-----10--7------5--7-----------| 
E|---0--------0------0-----0-----------0--------0---------0------------------| 

e|---------------------------------------------------------------------------| 
B|---------------------------------------------------------------------------| 
G|---------------------------------------------------------------------------| 
D|---------------------------------------------------------------------------| 
A|------5--7-----10-----7-----5h7--------------------------------------------| 
E|---0--------0------0-----0-----------0--3--5--0--3--5--0--3--5-------------| 



Chorus 2 1:38 
e|---------------------------------------------------------------------------| 
B|---------------------------------------------------------------------------| 
G|---------------------------------------------------------------------------| 
D|---------------------------------------------------------------------------| 
A|------5--7-----10-----7-----5h7---------5--7-----10--7------5--7-----------| 
E|---0--------0------0-----0-----------0--------0---------0------------------| 

e|---------------------------------------------------------------------------| 
B|---------------------------------------------------------------------------| 
G|---------------------------------------------------------------------------| 
D|---------------------------------------------------------------------------| 
A|------5--7-----10-----7-----5h7--------------------------------------------| 
E|---0--------0------0-----0-----------0--3--5--0--3--5--0--3--5-------------| 

e|---------------------------------------------------------------------------| 
B|---------------------------------------------------------------------------| 
G|---------------------------------------------------------------------------| 
D|------------------------------5-5-5-5--7-7-7-7-----------------------------| 
A|---------7--5--7--10--7--5----5-5-5-5--7-7-7-7-----------------------------| 
E|---0--0-----------------------3-3-3-3--5-5-5-5-----------------------------| 

e|---------------------------------------------------------------------------| 
B|---------------------------------------------------------------------------| 
G|---------------------------------------------------------------------------| 
D|------------------------------5-5-5---7-7-7--------------------------------| 
A|---------7--5--7--10--7--5----5-5-5---7-7-7--------------------------------| 
E|---0--0-----------------------3-3-3---5-5-5--6p5p3-------------------------| 



Bridge 1:58 
No guitar till 2:43 ("ready or not, day dreamin's got to stop!") 
e|----------------------------------| 
B|----------------------------------| 
G|----------------------------------| 
D|----------------------------------| 
A|----------------------------------| 
E|---0--3--5--0--3--5--0--3--5------| 



Outro 2:48 
e|---------------------------------------------------------------------------| 
B|---------------------------------------------------------------------------| 
G|---------------------------------------------------------------------------| 
D|------------------------------5-5-5-5--7-7-7-7-----------------------------| 
A|---------7--5--7--10--7--5----5-5-5-5--7-7-7-7-----------------------------| 
E|---0--0-----------------------3-3-3-3--5-5-5-5-----------------------------| 

e|---------------------------------------------------------------------------| 
B|---------------------------------------------------------------------------| 
G|---------------------------------------------------------------------------| 
D|------------------------------5-5-5---7-7-7--------------------------------| 
A|---------7--5--7--10--7--5----5-5-5---7-7-7--------------------------------| 
E|---0--0-----------------------3-3-3---5-5-5--6p5p3-------------------------| 

e|---------------------------------------------------------------------------| 
B|---------------------------------------------------------------------------| 
G|---------------------------------------------------------------------------| 
D|------------------------------5-5-5-5--7-7-7-7-----------------------------| 
A|---------7--5--7--10--7--5----5-5-5-5--7-7-7-7-----------------------------| 
E|---0--0-----------------------3-3-3-3--5-5-5-5-----------------------------| 

e|------------------------------------------------------------------------------------------------| 
B|------------------------------------------------------------------------------------------------| 
G|---------------------------------------------------------------12--14------12--14------12--14---| 
D|-----------------------------------------------------------14----------14----------14-----------| 
A|---------7--5--7--10--7--5----------------------------------------------------------------------| 
E|---0--0-----------------------0--3--5--0--3--5--0--3--5-----------------------------------------| 

e|---------------------------------------------------------------------------| 
B|---------------------------------------------------------------------------| 
G|---------------------------------------------------------------------------| 
D|-----------------------------------5-5-5-5--7-7-7-7------------------------| 
A|------5--7-----10-----7-----5h7----5-5-5-5--7-7-7-7------------------------| 
E|---0--------0------0-----0---------3-3-3-3--5-5-5-5------------------------| 

e|---------------------------------------------------------------------------| 
B|---------------------------------------------------------------------------| 
G|---------------------------------------------------------------------------| 
D|-----------------------------------5-5-5---7-7-7---------------------------| 
A|------5--7-----10-----7-----5h7----5-5-5---7-7-7---------------------------| 
E|---0--------0------0-----0---------3-3-3---5-5-5--6p5p3--------------------| 

e|---------------------------------------------------------------------------| 
B|---------------------------------------------------------------------------| 
G|---------------------------------------------------------------------------| 
D|-----------------------------------5-5-5---7-7-7-7-7-----------------------| 
A|------5--7-----10-----7-----5h7----5-5-5---7-7-7-7-7-----------------------| 
E|---0--------0------0-----0---------3-3-3---5-5-5-5-5-----------------------| 

e|----------------------------------------------------------------------------------------------------| 
B|----------------------------------------------------------------------------------------------------| 
G|-------------------------------------------------------------------12--14------12--14------12--14---| 
D|---------------------------------------------------------------14----------14----------14-----------| 
A|------5--7-----10-----7-----5h7---------------------------------------------------------------------| 
E|---0--------0------0-----0---------0--3--5--0--3--5--0--3--5----------------------------------------| 



************************************ 


Order: 

Intro  x2 
Verse  x4 
Intro  x1 
Chorus x1 
Verse  x4 
Intro  x1 
Chorus x1 
Bridge x1 
Outro  x1 



************************************ 

| x   Dead note 
| g   Grace note 
| (n) Ghost note 
| h   Hammer-on 
| p   Pull-off 
| r   Release 
| >   Accented note 
| t   Tapping 
| b   Bend 
| br  Bend release 
| pb  Pre-bend 
| pbr Pre-bend release 
| /   Slide up 
| \   Slide down 
| ~   Vibrato 
| s   Slap 
| P   Pop 
| PM  Palm mute 
| TR  Trill 
| N   Tremolo 

************************************ 
		  

See also:

tabs Biffy Clyro - Thunder Monster tabs Twin Atlantic - The Ghost Of Eddie tabs Biffy Clyro - Sorry And Thanks tabs Biffy Clyro - Eyelids tabs Frightened Rabbit - Head Rolls Off tabs Biffy Clyro - Picture A Knife Fight
e-chords

Other versions:

tabs Deathrays - No Sleep tabs Twin Atlantic - No Sleep tabs Into It Over It - No Sleep Til Humboldt tabs Slayer - No Sleep Till Brooklyn Zolo
auto scroll beats size up size down change color hide chords drawings
tab show chords e-chords YouTube Clip e-chords hide all tabs e-chords go to top tab

share