TV Themes

home > TV Themes

Esporte Espetacular Tab

TV Themes

Difficulty: AdvancedAdvanced

by felipemontero

tuner correct add songbook print version text version save to e-mail
chordsukulelecavacokeyboardtabbassdrumsharmonicsflute Guitar Pro
chords

Esporte Espetacular

  		E|--------15---13---11----15---13---11--10---| 
B|-------------------------------------------| 
G|-------------------------------------------| 
D|-----13---------------13-------------------| 
A|-------------------------------------------| 
E|-------------------------------------------| 

E|--------15---13---11----15---13---11--15---| 
B|-------------------------------------------| 
G|-------------------------------------------| 
D|-----13---------------13-------------------| 
A|-------------------------------------------| 
E|-------------------------------------------| 

e|---10---10---8---7--7---5---5--| 
B|-------------------------------| 
G|-------------------------------| 
D|-------------------------------| 
A|-------------------------------| 
E|-------------------------------| 

e|---7---7---5---3--10---8---8------5----7--| 
B|------------------------------8-----------| 
G|------------------------------------------| 
D|------------------------------------------| 
A|------------------------------------------| 
E|------------------------------------------| 

e|---7---5---3---12---7---7---5---3---12--| 
B|----------------------------------------| 
G|----------------------------------------| 
D|----------------------------------------| 
A|----------------------------------------| 
E|----------------------------------------| 

e|---10---10----10---10---8---7-----7----5---5----| 
B|------------------------------------------------| 
G|------------------------------------------------| 
D|------------------------------------------------| 
A|------------------------------------------------| 
E|------------------------------------------------| 

e|---7---7---5---3---10----8---8--------5------7--| 
B|----------------------------------8-------------| 
G|------------------------------------------------| 
D|------------------------------------------------| 
A|------------------------------------------------| 
E|------------------------------------------------| 

e|---7---5---3---12----7---7---5---3----12--| 
B|------------------------------------------| 
G|------------------------------------------| 
D|------------------------------------------| 
A|------------------------------------------| 
E|------------------------------------------| 

e|---10---10--------------------6------5--| 
B|--------------------------8-------------| 
G|----------------------8-----------------| 
D|--------------13------------------------| 
A|----------------------------------------| 
E|----------------------------------------| 

e|------6---8---5---13--------------| 
B|----------------------------------| 
G|--------------------------------5-| 
D|--3---------------------0---------| 
A|----------------------------------| 
E|----------------------------------| 

e|----------------------------3---7---10----9--| 
B|---3---3---1---------------------------------| 
G|---------------3---0---0---------------------| 
D|---------------------------------------------| 
A|---------------------------------------------| 
E|---------------------------------------------| 

e|---10---12--9---17----15---14-------| 
B|--------------------------------15--| 
G|------------------------------------| 
D|------------------------------------| 
A|------------------------------------| 
E|------------------------------------| 

e|------------3----| 
B|-------3---------| 
G|--2--------------| 
D|-----------------| 
A|-----------------| 
E|-----------------| 

e|--------15---13---11----15---13---11--10----8| 
B|---------------------------------------------| 
G|---------------------------------------------| 
D|---13----------------------------------------| 
A|---------------------------------------------| 
E|---------------------------------------------| 
	  

Search Paypal
auto scroll beats size up size down change color hide chords drawings
tab show chords e-chords YouTube Clip e-chords hide all tabs e-chords go to top tab