Turnstyle

Colonge

Turnstyle

tabs

save to print version add songbook text version e-mail correct tuner
chordsukulelecavacokeyboardtabbassdrumsharmonicaflute Guitar Pro
close

there isn't a video lesson for this song

chords

Colonge

	  		Grant Joyce 
[email protected] 
 
This song is on both itcheekneesonchee and Seasides. 
 
Intro 
 
  |-0---0---4---4----|---0---0---0---0--| 
  |---0---0---0---0--|-4---4---2---2----| 
  |------------------|------------------| 
  |------------------|------------------| 
  |------------------|------------------| 
  |------------------|------------------| 
 
Verse 
 
  |-E--|-E-A--| 
 
Chorus 
 
  |-E--|-A-F#--| 
 
Solo 
 
  |-4-4-4-4-2-2-2-2--|-0-0-0-0----------| 
  |------------------|---------2-2-2-2--| 
  |------------------|------------------| 
  |------------------|------------------| x 2 
  |------------------|------------------| 
  |------------------|------------------| 
 
  |-9-9-9-9----------|----------------------| 
  |---------9-9-9-9--|-10-10-10-10----------| 
  |------------------|-------------9-9-9-9--| 
  |------------------|----------------------| x 2 
  |------------------|----------------------| 
  |------------------|----------------------| 
 
  |------------------|     |---------2-2-2----| 
  |-2-2-2-4-0-0-0-0--|     |-2-2-2-4-------4--| 
  |------------------|     |------------------| 
  |------------------|     |------------------| 
  |------------------|     |------------------| 
  |------------------|     |------------------| 
 
Ending 
 
  Play the intro thrice and end on this ... 
 
  |-0---0---4---4----|---0---0---0---0--| 
  |---0---0---0---0--|-3---3---2---2----| 
  |------------------|------------------| 
  |------------------|------------------| 
  |------------------|------------------| 
  |------------------|------------------| 
		  

auto scroll beats size up size down change color hide chords drawings
tab show chords e-chords YouTube Clip e-chords hide all tabs e-chords go to top tab

share