T.S.O.L.

Wash Away

T.S.O.L.

tabs

by  PAULLET3

save to print version add songbook text version e-mail correct tuner
chordsukulelecavacokeyboardtabbassdrumsharmonicaflute Guitar Pro
close

there isn't a video lesson for this song

chords

Wash Away

Year: 1991 - Album: Live 1991

	  		
Intro 

e|---------------------------------------| 
B|---------------------------------------| 
G|-12-12-12-12-12-12---------------------| x7 
D|-12-12-12-12-12-12-11-12-12-12-12-12---| 
A|-10-10-10-10-10-10-11-12-12-12-12-12---| 
E|-------------------9/-10-10-10-10-10---| 

e|-----------------------------| 
B|-----------------------------| 
G|-10-10-10-10-10-10-10-10-10--| x1 
D|-10-10-10-10-10-10-10-10-10--| 
A|-8--8--8--8--8--8--8--8--8---| 
E|-----------------------------| 

verse 1 

e|-------------------------------------------| 
B|-------------------------------------------| 
G|-------------------------------------------| x3 
D|-10-10-10-10-10-10-10-10-3-3-3-3-3-3-3-3---| 
A|-10-10-10-10-10-10-10-10-3-3-3-3-3-3-3-3---| 
E|-8--8--8--8--8--8--8--8--1-1-1-1-1-1-1-1---| 

e|-------------------------------------------| 
B|-------------------------------------------| 
G|-------------------------------------------| x2 
D|-10-10-10-10-10-10-10-10-3-3-3-3-3-3-3-3---| 
A|-10-10-10-10-10-10-10-10-3-3-3-3-3-3-3-3---| 
E|-8--8--8--8--8--8--8--8--1-1-1-1-1-1-1-1---| 
      --------------------------------- 

Chorus 

e|-----------------------------------------------------------| 
B|-----------------------------------------------------------| 
G|-----------------------------------------------------------| x2 
D|-7-7-7-7-7-7-7-8-8-8-8-8-8-8-8-7-7-7-7-7-7-7-7-8-8-10-12---| 
A|-7-7-7-7-7-7-7-8-8-8-8-8-8-8-8-7-7-7-7-7-7-7-7-8-8-10-12---| 
E|-5-5-5-5-5-5-5-6-6-6-6-6-6-6-6-5-5-5-5-5-5-5-5-6-6-8--10---| 

verse 1 

e|-------------------------------------------| 
B|-------------------------------------------| 
G|-------------------------------------------| x3 
D|-10-10-10-10-10-10-10-10-3-3-3-3-3-3-3-3---| 
A|-10-10-10-10-10-10-10-10-3-3-3-3-3-3-3-3---| 
E|-8--8--8--8--8--8--8--8--1-1-1-1-1-1-1-1---| 

e|-------------------------------------------| 
B|-------------------------------------------| 
G|-------------------------------------------| x2 
D|-10-10-10-10-10-10-10-10-3-3-3-3-3-3-3-3---| 
A|-10-10-10-10-10-10-10-10-3-3-3-3-3-3-3-3---| 
E|-8--8--8--8--8--8--8--8--1-1-1-1-1-1-1-1---| 
      --------------------------------- 

Chorus 

e|-----------------------------------------------------------| 
B|-----------------------------------------------------------| 
G|-----------------------------------------------------------| x2 
D|-7-7-7-7-7-7-7-8-8-8-8-8-8-8-8-7-7-7-7-7-7-7-7-8-8-10-12---| 
A|-7-7-7-7-7-7-7-8-8-8-8-8-8-8-8-7-7-7-7-7-7-7-7-8-8-10-12---| 
E|-5-5-5-5-5-5-5-6-6-6-6-6-6-6-6-5-5-5-5-5-5-5-5-6-6-8--10---| 

Just play the verse for the final minute. 

************************************ 

| /   Slide up 
| -   Palm Mute 

************************************ 
		  

See also:

tabs Blue Oyster Cult - Dont Fear The Reaper tabs Guns N' Roses - Nightrain tabs Guns N' Roses - You Could Be Mine tabs Guns N' Roses - November Rain (Ver. Acoustic) tabs Guns N' Roses - Civil War tabs Guns N' Roses - Don't Cry
e-chords

Other versions:

tabs Coldplay - Wash Away tabs T.S.O.L. - Wash Away tabs Creed - Wash Away Those Years
auto scroll beats size up size down change color hide chords drawings
tab show chords e-chords YouTube Clip e-chords hide all tabs e-chords go to top tab

share