Trust But Verify

Truth Remains

Trust But Verify

tabs

by  BRUNBLAZKOWSKI

save to print version add songbook text version e-mail correct tuner
chordsukulelecavacokeyboardtabbassdrumsharmonicaflute Guitar Pro
close

there isn't a video lesson for this song

chords

Truth Remains

	  		


Intro (Clean) 
B |-------------------------------------------------|-------------------------------------------------| 
F#|-------------------------------------------------|-10----------------10----------------10----------| 
D |-------------------------------------------------|-------10----------------10----------------10----| 
A |-9-----9-----------7-----7-----------10----10----|-------------12----------------12----------------| 
E |-7-----7-----------5-----5-----------8-----8-----|-------------------------------------------------| 
A |-7-----7-----------5-----5-----------8-----8-----|-------------------------------------------------| 
  |                                                                                                   | 
  |                                                                                                   | 
B |-------------------------------------------------|-------------------------------------------------| 
F#|-------------------------------------------------|-13----------------13----------------13----------| 
D |-------------------------------------------------|-------14----------------14----------------14----| 
A |-------------------------------------------------|-------------15----------------15----------------| 
E |-------------------------------------------------|-------------------------------------------------| 
A |-------------------------------------------------|-------------------------------------------------| 


Intro (Distorted) 
B |-------------------------------------------------|-------------------------------------------------| 
F#|-------------------------------------------------|-------------------------------------------------| 
D |-------------------------------------------------|-------------------------------------------------| 
A |-9-----9-----------7-----7-----------10----10----|-------------------------------------------------| 
E |-7-----7-----------5-----5-----------8-----8-----|-------------------------------------------------| 
A |-7-----7-----------5-----5-----------8-----8-----|-0-----0-----0-----0-----0-----0-----0-----0-----| 
  |                                                   .     .     .     .     .     .     .     .     | 
  |                                                                                                   | 
B |-------------------------------------------------|-------------------------------------------------| 
F#|-------------------------------------------------|-10----------------10----------------10----------| 
D |-------------------------------------------------|-------10----------------10----------------10----| 
A |-------------------------------------------------|-------------12----------------12----------------|    X3 
E |-------------------------------------------------|-------------------------------------------------| 
A |-------------------------------------------------|-------------------------------------------------| 
  |                                                                                                   | 
  |                                                                                                   |  
B |-------------------------------------------------|-------------------------------------------------| 
F#|-------------------------------------------------|-13----------------13----------------13----------| 
D |-------------------------------------------------|-------14----------------14----------------14----| 
A |-------------------------------------------------|-------------15----------------15----------------| 
E |-------------------------------------------------|-------------------------------------------------| 
A |-------------------------------------------------|-------------------------------------------------| 



B |-------------------------------------------------|-------------------------------------------------| 
F#|-------------------------------------------------|-------------------------------------------------| 
D |-------------------------------------------------|-------------------------------------------------| 
A |-9-----9-----------7-----7-----------10----10----|-------------------------------------------------| 
E |-7-----7-----------5-----5-----------8-----8-----|-------------------------------------------------| 
A |-7-----7-----------5-----5-----------8-----8-----|-------------------------------------------------| 
  |                                                                                                   | 
  |                                                                                                   | 
B |-------------------------------------------------|12-----------------------------------------------| 
F#|-------------------------------------------------|10-----------------------------------------------| 
D |-------------------------------------------------|10-----------------------------------------------| 
A |-------------------------------------------------|-------------------------------------------------|    X1 
E |-------------------------------------------------|-------------------------------------------------| 
A |-------------------------------------------------|-------------------------------------------------| 


Verse 
B |-------------------------------------------------|-------------------------------------------------| 
F#|-------------------------------------------------|-------------------------------------------------| 
D |-------------------------------------------------|-------------------------------------------------| 
A |-5--6--5--6--3--5--3--5--5--6--5--6--3--5--3--5--|-5--6--5--6--3--5--3--5-----(Tremolo Pick)-------| 
E |-5--6--5--6--3--5--3--5--5--6--5--6--3--5--3--5--|-5--6--5--6--3--5--3--5--5-----8-----7-----4-----| 
A |-5--6--5--6--3--5--3--5--5--6--5--6--3--5--3--5--|-5--6--5--6--3--5--3--5--------------------------| 
    .  .  .  .  .  .  .  .  .  .  .  .  .  .  .  .    .  .  .  .  .  .  .  .   



1st & 2nd Chorus 
B |-------------------------------------------------|-------------------------------------------------| 
F#|-------------------------------------------------|-------------------------------------------------| 
D |-------------------------------------------------|-------------------------------------------------| 
A |-7-----7-----7-----7-----7-----7-----7-----7-----|-7-----7-----7-----7-----7-----8-----8-----8-----| 
E |-7-----7-----7-----7-----7-----7-----7-----7-----|-7-----7-----7-----7-----7-----8-----8-----8-----| 
A |-7-----7-----7-----7-----7-----7-----7-----7-----|-7-----7-----7-----7-----7-----8-----8-----8-----| 
  |                                                                                                   | 
  |                                                                                                   | 
B |-------------------------------------------------|-------------------------------------------------| 
F#|-------------------------------------------------|-------------------------------------------------| 
D |-9-----9-----9-----9-----9-----9-----9-----9-----|-9-----9-----9-----9-----9-----7-----7-----7-----| 
A |-x-----x-----x-----x-----x-----x-----x-----x-----|-x-----x-----x-----x-----x-----x-----x-----x-----| 
E |-7-----7-----7-----7-----7-----7-----7-----7-----|-7-----7-----7-----7-----7-----5-----5-----5-----| 
A |-------------------------------------------------|-------------------------------------------------| 
  |                                                                                                   | 
  |                                                                                                   |  
B |-------------------------------------------------|-------------------------------------------------| 
F#|-------------------------------------------------|-------------------------------------------------| 
D |-14----14----14----14----14----14----14----14----|-14----14----14----14----14----15----15----15----| 
A |-x-----x-----x-----x-----x-----x-----x-----x-----|-x-----x-----x-----x-----x-----x-----x-----x-----| 
E |-12----12----12----12----12----12----12----12----|-12----12----12----12----12----13----13----13----| 
A |-------------------------------------------------|-------------------------------------------------| 



B |-------------------------------------------------|-------------------------------------------------| 
F#|-------------------------------------------------|-------------------------------------------------| 
D |-------------------------------------------------|-------------------------------------------------| 
A |-3-----3-----3-----3-----3-----3-----3-----3-----|-3-----3-----3-----3-----3-----5-----5-----5-----| 
E |-3-----3-----3-----3-----3-----3-----3-----3-----|-3-----3-----3-----3-----3-----5-----5-----5-----| 
A |-3-----3-----3-----3-----3-----3-----3-----3-----|-3-----3-----3-----3-----3-----5-----5-----5-----| 
  |                                                                                                   | 
  |                                                                                                   | 
B |-------------------------------------------------|-------------------------------------------------| 
F#|-------------------------------------------------|-------------------------------------------------| 
D |-10----10----10----10----10----10----10----10----|-10----10----10----10----10----12----12----12----| 
A |-x-----x-----x-----x-----x-----x-----x-----x-----|-x-----x-----x-----x-----x-----x-----x-----x-----| 
E |-8-----8-----8-----8-----8-----8-----8-----8-----|-8-----8-----8-----8-----8-----10----10----10----| 
A |-------------------------------------------------|-------------------------------------------------| 
  |                                                                                                   | 
  |                                                                                                   |  
B |-------------------------------------------------|-------------------------------------------------| 
F#|-------------------------------------------------|-------------------------------------------------| 
D |-17----17----17----17----17----17----17----17----|-17----17----17----17----17----17----17----17----| 
A |-x-----x-----x-----x-----x-----x-----x-----x-----|-x-----x-----x-----x-----x-----x-----x-----x-----| 
E |-15----15----15----15----15----15----15----15----|-15----15----15----15----15----13----13----13----| 
A |-------------------------------------------------|-------------------------------------------------| 



3rd Chorus 
B |-------------------------------------------------|-------------------------------------------------| 
F#|-------------------------------------------------|-------------------------------------------------| 
D |-------------------------------------------------|-------------------------------------------------| 
A |-7-----7-----7-----7-----7-----7-----7-----7-----|-7-----7-----7-----7-----7-----8-----8-----8-----| 
E |-7-----7-----7-----7-----7-----7-----7-----7-----|-7-----7-----7-----7-----7-----8-----8-----8-----| 
A |-7-----7-----7-----7-----7-----7-----7-----7-----|-7-----7-----7-----7-----7-----8-----8-----8-----| 
  |                                                                                                   | 
  |                                                                                                   | 
B |-------------------------------------------------|-------------------------------------------------| 
F#|-------------------------------------------------|-------------------------------------------------| 
D |-9-----9-----9-----9-----9-----9-----9-----9-----|-9-----9-----9-----9-----9-----7-----7-----7-----| 
A |-x-----x-----x-----x-----x-----x-----x-----x-----|-x-----x-----x-----x-----x-----x-----x-----x-----| 
E |-7-----7-----7-----7-----7-----7-----7-----7-----|-7-----7-----7-----7-----7-----5-----5-----5-----| 
A |-------------------------------------------------|-------------------------------------------------| 
  |                                                                                                   | 
  |                                                                                                   |  
B |-------------------------------------------------|-------------------------------------------------| 
F#|-------------------------------------------------|-------------------------------------------------| 
D |-14----14----14----14----14----14----14----14----|-14----14----14----14----14----15----15----15----| 
A |-x-----x-----x-----x-----x-----x-----x-----x-----|-x-----x-----x-----x-----x-----x-----x-----x-----| 
E |-12----12----12----12----12----12----12----12----|-12----12----12----12----12----13----13----13----| 
A |-------------------------------------------------|-------------------------------------------------| 



B |-------------------------------------------------|-------------------------------------------------| 
F#|-------------------------------------------------|-------------------------------------------------| 
D |-------------------------------------------------|-------------------------------------------------| 
A |-3-----3-----3-----3-----3-----3-----3-----3-----|-5-----5-----5-----5-----2-----2-----2-----2-----| 
E |-3-----3-----3-----3-----3-----3-----3-----3-----|-5-----5-----5-----5-----2-----2-----2-----2-----| 
A |-3-----3-----3-----3-----3-----3-----3-----3-----|-5-----5-----5-----5-----2-----2-----2-----2-----| 
  |                                                                                                   | 
  |                                                                                                   | 
B |-------------------------------------------------|-------------------------------------------------| 
F#|-------------------------------------------------|-------------------------------------------------| 
D |-10----10----10----10----10----10----10----10----|-12----12----12----12----9-----9-----9-----9-----| 
A |-x-----x-----x-----x-----x-----x-----x-----x-----|-x-----x-----x-----x-----x-----x-----x-----x-----| 
E |-8-----8-----8-----8-----8-----8-----8-----8-----|-10----10----10----10--- 7-----7-----7-----7-----| 
A |-------------------------------------------------|-------------------------------------------------| 
  |                                                                                                   | 
  |                                                                                                   |  
B |-------------------------------------------------|-------------------------------------------------| 
F#|-------------------------------------------------|-------------------------------------------------| 
D |-17----17----17----17----17----17----17----17----|-15----15----15----15----16----16----16----16----| 
A |-x-----x-----x-----x-----x-----x-----x-----x-----|-x-----x-----x-----x-----x-----x-----x-----x-----| 
E |-15----15----15----15----15----15----15----15----|-13----13----13----13----14----14----14----14----| 
A |-------------------------------------------------|-------------------------------------------------| 


Breakdown 
B |-------------------------------------------------|-------------------------------------------------| 
F#|-------------------------------------------------|-------------------------------------------------| 
D |-------------------------------------------------|-------------------------------------------------| 
A |-------------------------------------------------|-------------------------------------------------| 
E |-------------------------------------------------|-------------------------------------------------| 
A |-0-----0-----------0-----0-----------0--0--0-----|-------------------------------------------------| 
    .     .           .     .           .  .  . 

Interlude 
B |-------------------------------------------------|-------------------------------------------------| 
F#|-------------------------------------------------|-------------------------------------------------| 
D |-------------------------------------------------|-------------------------------------------------| 
A |-------------------------------------------------|-------------------------------------------------| 
E |-5--5--5--5--5--5--5--5--5--5--5--5--5--5--5--5--|-6--6--6--6--6--6--6--6--------------------------| 
A |-------------------------------------------------|-------------------------6--6--6--6--6--6--6--6--| 
  |                                                                                                   |  
  |                                                                                                   | 
B |-------------------------------------------------|-------------------------------------------------| 
F#|-------------------------------------------------|-------------------------------------------------| 
D |-------------------------------------------------|-------------------------------------------------| 
A |-------------------------------------------------|-------------------------------------------------| 
E |-5--5--5--5--5--5--5--5--5--5--5--5--5--5--5--5--|-6--6--6--6--6--6--6--6--11-11-11-11-11-11-11-11-| 
A |-------------------------------------------------|-------------------------------------------------| 


B |-------------------------------------------------|-------------------------------------------------| 
F#|-------------------------------------------------|-------------------------------------------------| 
D |-------------------------------------------------|-------------------------------------------------| 
A |-------------------------------------------------|-------------------------------------------------| 
E |-5--5--5--5--5--5--5--5--5--5--5--5--5--5--5--5--|-6--6--6--6--6--6--6--6--4--4--4--4--4--4--4--4--| 
A |-------------------------------------------------|-------------------------------------------------| 
  |                                                                                                   |  
  |                                                                                                   | 
B |-------------------------------------------------|-------------------------------------------------| 
F#|-------------------------------------------------|-------------------------------------------------| 
D |-------------------------------------------------|-------------------------------------------------| 
A |-------------------------------------------------|-------------------------------------------------| 
E |-5--5--5--5--5--5--5--5--5--5--5--5--5--5--5--5--|-6--6--6--6--6--6--6--6--4--4--4--4--4--4--4--4--| 
A |-------------------------------------------------|-------------------------------------------------| 



Outro 
B |-------------------------------------------------|-------------------------------------------------| 
F#|-------------------------------------------------|-------------------------------------------------| 
D |-------------------------------------------------|-------------------------------------------------| 
A |-------------------------------------------------|-------------------------------------------------| 
E |----------------3-----------------------3--------|----------------3-----------------------3--------| 
A |-6--0--3--5--------6--5--6--0--3--5--------6--5--|-6--0--3--5--------6--5--6--0--3--5--------6--5--| 


Outro Fig. 2 
B |-------------------------------------------------|-------------------------------------------------| 
F#|-------------------------------------------------|-------------------------------------------------| 
D |-------------------------------------------------|-------------------------------------------------| 
A |-6-----0-----------3-----------5-----------------|-6-----0-----------3-----------5-----------------| 
E |-6-----0-----------3-----------5-----------3-----|-6-----0-----------3-----------5-----------3-----| 
A |-6-----0-----------3-----------5-----------------|-6-----0-----------3-----------5-----------------| 
    .     .           .           .                   .     .           .           . 



Structure 
Intro (Clean) X4 
Intro (Distorted) X4 
Verse X2 
Chorus X2 
Breakdown X4 
Verse X2 
Chorus X2 
Intro (Distorted) X4 
Verse X2 
Breakdown X? (TBD) 
Chorus X2 
Interlude X4 
Outro Fig. 1 X2 
Outro Fig. 2 X2 

************************************ 

| /   slide up 
| \   slide down 
| h   hammer-on 
| p   pull-off 
| ~   vibrato 
| +   harmonic 
| x   Mute note 
| b   Bend 
| pb  Pre-bend 
| br  Bend release 
| pbr Pre-bend release 
| brb Bend release bend 

************************************ 
		  

See also:

tabs Deep Purple - Sail Away tabs Deep Purple - Pictures of Home tabs Deep Purple - Lazy tabs Deep Purple - Highway Star tabs Deep Purple - Deep Purple - Smoke On The Water tabs Deep Purple - Smoke On The Water (Intro + solo 01)
e-chords

Other versions:

tabs Trust But Verify - Truth Remains
auto scroll beats size up size down change color hide chords drawings
tab show chords e-chords YouTube Clip e-chords hide all tabs e-chords go to top tab

share