Trivium

home > Trivium

A Grey So Dark Tab

Trivium

Difficulty: EasyEasy

by aman%5Fclaudino

tuner correct add songbook print version text version save to e-mail
chordsukulelecavacokeyboardtabbassdrumsharmonicsflute Guitar Pro
chords

A Grey So Dark

  		


Intro 


  D#|---------------------------------------------------------------------|  
  A#|---------------------------------------------------------------------|  
  F#|---------------------------------------------------------------------|  
  C#|---------10---10------------7---7--------9--9-----------------3~-----|  
  G#|-10-777-0----0---14-101010-0---0--9-555-0--0--3333------------3~-----|  
  C#|-10-777----------14-101010--------9-555-------3333--2-2-/9-5--3~-----|  



Verse 


  D#|----------------------------|  
  A#|----------------------------|  
  F#|----------------------------|  
  C#|----------------------------|  
  G#|----------------------------|  
  C#|-7(x32)--3(x32)--7(x32)-----|  
     .       .       . 



Pre-chorus 



  Rhythm 

  D#|--------------------------------------------------------|  
  A#|--------------------------------------------------------|  
  F#|--------------------------------------------------------|  
  C#|-3333333333333333-7777777777777777-3333333333333333-----|  
  G#|-3333333333333333-7777777777777777-3333333333333333-----|  
  C#|-3333333333333333-7777777777777777-3333333333333333-----|  

  D#|-------|  
  A#|-------|  
  F#|-------|  
  C#|-7-----|  
  G#|-7-----|  
  C#|-7-----|  

  Lead  

  D#|------------------------------------------------------------------------------------|-  
  A#|-------5-----------5----------------------------------------------------------------|-  
  F#|-5-----------5------------9---12------9-------9-------9-------9-------9---12--------|-  
  C#|---7-----7-----7-----7------10---10-----10------10------10------10------10---10-----|-  
  G#|-----8-----8-----8-----8-------------------12------12------12------12---------------|-  
  C#|------------------------------------------------------------------------------------|-  

  Lead (continued) 

  D#|---------------------------------------------| 
  A#|---------------------------------------------| 
  F#|-10------10------10------10------10----------| 
  C#|----10------10------10------10------10-------| 
  G#|-------8-------8-------8-------8-------8-----| 
  C#|---------------------------------------------| 

  D#|-------|  
  A#|-------|  
  F#|-------|  
  C#|-7-----|  
  G#|-7-----|  
  C#|-7-----|  



Chorus  



  D#|-------------------------------------------------------------------|  
  A#|-------------------------------------------------------------------|  
  F#|-------------------------------------------------------------------|  
  C#|---------10---10------------7----7----5------3---------------------|  
  G#|-10-777-0----0---14-101010-0----0-----5------3---------------------|  
  C#|-10-777----------14-101010------------5-x(?)-3-x(?)---2-2-/9-5-----|  
                                          ^I'm not sure how many times these chords are strummed, 
                                             But you'll be able to figure it out. 
 ^ Repeat twice, second ending is: 

  D#|-------|  
  A#|-------|  
  F#|-------|  
  C#|-3~----|  
  G#|-3~----|  
  C#|-3~----|  



Second Verse 



  A repeat of the first verse, but with something like this being played over top of it 


  Lead 

  D#|-----------------------------------------------------|-  
  A#|-17----17----17----17----17----17----17----17--------|-  
  F#|----14----14----14----14----14----14----14----14-----|-  
  C#|-----------------------------------------------------|-  
  G#|-----------------------------------------------------|-  
  C#|-----------------------------------------------------|-  

  Lead (continued) 

  D#|-----------------------------------------------------| 
  A#|-13----13----13----13----13----13----13----13--------| 
  F#|-----------------------------------------------------| 
  C#|----15----15----15----15----15----15----15----15-----| 
  G#|-----------------------------------------------------| 
  C#|-----------------------------------------------------| 



Second Pre-chorus 



  Repeat of the first, but with this alternate ending 


  D#|-------------------|  
  A#|-------------------|  
  F#|-------------------|  
  C#|-7--7--7--7-77-----|  
  G#|-7--7--7--7-77-----|  
  C#|-7--7--7--7-77-----|   
	  

Search Paypal
auto scroll beats size up size down change color hide chords drawings
tab show chords e-chords YouTube Clip e-chords hide all tabs e-chords go to top tab