Trevor Hall

Stand Open

Trevor Hall

tabs

by  CARLLUZ

save to print version add songbook text version e-mail correct tuner
chordsukulelecavacokeyboardtabbassdrumsharmonicaflute Guitar Pro
close

there isn't a video lesson for this song

chords

Stand Open

	  		Intro 

e|--------------0--------------0-----------------0-------0---0---------------| 
B|---------------------------------------------------------------------------| 
G|------4--1---1/4--1--4---1---------1-------------------4-------------------| 
D|---6------------------------4\2--2------2-----2h4---6-----6----------------| 
A|---------------------------------------------------------------------------| 
E|----------------------------------------0----------------------------------| 

e|--------------0-------------0-------------0--------0---0-------------------| 
B|---------------------------------------------------------------------------| 
G|------4--1---1/4--1--4---1-------------------------4-----------------------| 
D|---6------------------------4\2--2--2-----2h4---6-----6--------------------| 
A|---------------------------------------------------------------------------| 
E|------------------------------------0--------------------------------------| 

If you find a live video please comment, I cannot find one. 

************************************ 

| h   Hammer-on 
| /   Slide up 
| \   Slide down  

************************************ 
		  

See also:

tabs Red Hot Chili Peppers - Under The Bridge (ver. 2) tabs Good Charlotte - Hold On tabs Ben Harper - Diamonds on inside tabs Good Charlotte - Predictable tabs Paramore - Misery Business tabs Red Hot Chili Peppers - Scar Tissue (ver. 4)
e-chords

Other versions:

tabs Trevor Hall - Stand Open
auto scroll beats size up size down change color hide chords drawings
tab show chords e-chords YouTube Clip e-chords hide all tabs e-chords go to top tab

share with facebook