Tremonti

Trust

Tremonti

tabs

by  VSWORLD

save to print version add songbook text version e-mail correct tuner
chordsukulelecavacokeyboardtabbassdrumsharmonicaflute Guitar Pro
close

there isn't a video lesson for this song

chords

Trust

Key:  D# More
Trust Key A#A#
Trust Key BB
Trust Key CC
Trust Key C#C#(one step down)
Trust Key DD(half step down)
Trust Key D#D#(original key)
Trust Key EE(half step up)
Trust Key FF(one step up)
Trust Key F#F#
Trust Key GG
Trust Key G#G#
Trust Key AA
	  		
Intro 

D#|---------------------------|----------------0-----0--|---------------------------| 
A#|-------------12NH----------|-------------0-----3-----|-------------12NH----------| 
F#|---------------------------|-------------------------|------------------------0--| 
C#|----12--10-------------10--|-------------------------|----12--10-----------------| 
G#|---------------------------|-------------------------|---------------------------| 
D#|-0----------------12-------|-------------------------|-0----------------12-------| 

D#|----------------0-----0--| 
A#|-------------0-----3-----| 
F#|-------------------------| 
C#|-------------------------| play 2x 
G#|-------------------------| 
D#|-------------------------| 



Verse Rhythm 

    lightly muted throughout - listen for timing 
D#|--------------------------|----------------------------| 
A#|--------------------------|----------------------------| 
F#|--------------------------|----------------------------| 
C#|-----9-----9-----9----10--|-10p9-----9-----9-----9-----| 
G#|-----7-----7-----7-----7--|----7-----7-----7-----7-----| 
D#|--------------------------|----------------------------| 

D#|--------------------------|----------------------------| 
A#|--------------------------|----------------------------| 
F#|--------------------------|----------------------------| 
C#|--------------------------|----------------------------| 
G#|----10----10----10----12--|-12p10---10-----9-----9-----| 
D#|-----8-----8-----8-----8--|-----8----8-----8-----8-----| 

    play Verse Rhythm 2x total 



Verse Accents 

    Second guitar picks open high E repeatedly with mutes  
    and delay pedal throughout, but add the following fills: 

    bar 2, 6               bar 4, 8 
D#|---------------------|---------------3h5--------| 
A#|-----------0h3h5-----|--------------------------| 
F#|---------------------|--------------------------| 
C#|---------------------|--------------------------| 
G#|---------------------|--------------------------| 
D#|---------------------|--------------------------| 



PreChorus Rhythm 

D#|------------------------------------|------------------------------------| 
A#|------------------------------------|------------------------------------| 
F#|-7/9--9--9--9--------7---7---7---7--|-7/9--9--9--9--------7--------------| 
C#|------------------------------------|------------------------------------| 
G#|-5/7--7--7--7--------5---5---5---5--|-5/7--7--7--7--------5--------------| 
D#|------------------------------------|------------------------5br6~~------| 

D#|------------------------------------|-----------------------------------------------------| 
A#|------------------------------------|-----------------------------------------------------| 
F#|-7/9--9--9--9--------7---7---7---7--|-7/9--9--9--9--9/11-11-11-11-11/12-12-12-12----------| 
C#|------------------------------------|-----------------------------------------------------| 
G#|-5/7--7--7--7--------5---5---5---5--|-5/7--7--7--7--7/9--9--9--9---9/10-10-10-10----------| 
D#|------------------------------------|-----------------------------------------------------| 



PreChorus Accents 

    bar 1                 bar 3 
D#|--7-----------------|--7---------------------| 
A#|--8-----------------|--8---------------------| 
F#|--9-----------------|--9---------------------| hold these chords for 2 bars each 
C#|--9-----------------|--9---------------------| 
G#|--7-----------------|--7---------------------| 
D#|--------------------|------------------------| 



Chorus Rhythm 

     hold octaves 
D#|--------------------|------------------------|---------------------------| 
A#|--------------------|------------------------|---------------------------| 
F#|--9-----------------|--9---------12----------|--7------------------------|   play 3x 
C#|--------------------|------------------------|---------------------------| 
G#|--7-----------------|--7---------10----------|--5-------3p2-----3p2------| 
D#|--------------------|------------------------|----------------3-------3--| 


   Chorus Ending 
D#|--------------------|------------------------| 
A#|--------------------|------------------------| 
F#|--9-----------------|--9---------------------| 
C#|--------------------|------------------------| 
G#|--7-----------------|--7---------------------| 
D#|--------------------|------------------------| 



Play Intro again 


verse 2 Rhythm 
     
D#|--------------------------------------|-------------------------------------| 
A#|--------------------------------------|-------------------------------------| 
F#|--12\11----11----11----11----12-12-12-|-12\11----11----11----11----7--7--7--| 
C#|--------------------------------------|-------------------------------------| 
G#|--10\9-----9-----9-----9-----10-10-10-|-10\9-----9-----9-----9-----5--5--5--| 
D#|--------------------------------------|-------------------------------------| 

D#|-------------------------------------|--------------------------------------| 
A#|-------------------------------------|--------------------------------------| 
F#|--7\5-----5-----5-----5-----7--7--7--|-7\5-----5-----5-----5--4--4--4--4----| 
C#|-------------------------------------|--------------------------------------| play through 2x 
G#|--5\3-----3-----3-----3-----5--5--5--|-5\3-----3-----3-----3--2--2--2--2----| 
D#|-------------------------------------|--------------------------------------| 



verse 2 Accents 

    Same as before: Second guitar picks open high E repeatedly with mutes  
    and delay pedal throughout, but add the following fills: 

    bar 2, 6               bar 4, 8 
D#|---------------------|---------------3h5--------| 
A#|-----------0h3h5-----|--------------------------| 
F#|---------------------|--------------------------| 
C#|---------------------|--------------------------| 
G#|---------------------|--------------------------| 
D#|---------------------|--------------------------| 



PreChorus 2 Rhythm 

D#|------------------------------------|------------------------------------| 
A#|------------------------------------|------------------------------------| 
F#|-7/9--9--9--9--------7---7---7---7--|-7/9--9--9--9--------7--------------| 
C#|------------------------------------|------------------------------------| 
G#|-5/7--7--7--7--------5---5---5---5--|-5/7--7--7--7--------5--------------| 
D#|------------------------------------|------------------------5br6~~------| 

D#|------------------------------------|-----------------------------------------------------| 
A#|------------------------------------|-----------------------------------------------------| 
F#|-7/9--9--9--9--------7---7---7---7--|-7/9--9--9--9--9/11-11-11-11-11/12-12-12-12----------| 
C#|------------------------------------|-----------------------------------------------------| 
G#|-5/7--7--7--7--------5---5---5---5--|-5/7--7--7--7--7/9--9--9--9---9/10-10-10-10----------| 
D#|------------------------------------|-----------------------------------------------------| 



PreChorus 2 Accents 

    bar 1                 bar 3 
D#|--7-----------------|--7---------------------| 
A#|--8-----------------|--8---------------------| 
F#|--9-----------------|--9---------------------| hold these chords for 2 bars each 
C#|--9-----------------|--9---------------------| 
G#|--7-----------------|--7---------------------| 
D#|--------------------|------------------------| 



Chorus 2 Rhythm 

     hold octaves 
D#|--------------------|------------------------|---------------------------| 
A#|--------------------|------------------------|---------------------------| 
F#|--9-----------------|--9---------12----------|--7------------------------|   play 3x 
C#|--------------------|------------------------|---------------------------| 
G#|--7-----------------|--7---------10----------|--5-------3p2-----3p2------| 
D#|--------------------|------------------------|----------------3-------3--| 

   Chorus Ending: 
D#|--------------------|------------------------| 
A#|--------------------|------------------------| 
F#|--9-----------------|--9---------------------| 
C#|--------------------|------------------------| 
G#|--7-----------------|--7---------------------| 
D#|--------------------|------------------------| 


Bridge 

    Rhythm: 
D#|---------------------------------------------| 
A#|----------3---------------3----------------3-| 
F#|----4----------4-----4---------4-----4-------| repeat throughout 
C#|-5-----5----------5-----5---------5-----5----| 2:30 -  
G#|---------------------------------------------| 
D#|---------------------------------------------| 

     
Lead/Overdub Bridge 

D#|---------------------------------------------| 
A#|----12-------12----12---------12----12-------| 
F#|-12----12-------12----12---------12----12----| play 4x 
C#|---------------------------------------------| 
G#|---------------------------------------------| 
D#|---------------------------------------------| 

    play this 2x: 
D#|---------------------------------------------|---------------------------------------------| 
A#|----13-------13----13---------13----13-------|----15-------15----15---------15----15-------| 
F#|-12----12-------12----12---------12----12----|-12----12-------12----12---------12----12----| 
C#|---------------------------------------------|---------------------------------------------| 
G#|---------------------------------------------|---------------------------------------------| 
D#|---------------------------------------------|---------------------------------------------| 

D#|---------------------------------------------|---------------------------------------------| 
A#|----12-------12----12---------12----12-------|----12-------12----12---------12----12-------| 
F#|-12----12-------12----12---------12----12----|-12----12-------12----12---------12----12----| 
C#|---------------------------------------------|---------------------------------------------| 
G#|---------------------------------------------|---------------------------------------------| 
D#|---------------------------------------------|---------------------------------------------| 

   Heavier Part 
D#|---------------------------------------------| 
A#|-15----15----15-15-15-15------15-15-15-15----|  
F#|-12----12----12-12-12-12------12-12-12-12----|  play 2x 
C#|---------------------------------------------| 
G#|---------------------------------------------| 
D#|---------------------------------------------| 

D#|---------------------------------------------| 
A#|-12----12----12-12-12-12------12-12-12-12----| 
F#|-12----12----12-12-12-12------12-12-12-12----|  play 2x 
C#|---------------------------------------------| 
G#|---------------------------------------------| 
D#|---------------------------------------------| 
    


Last Chorus 

  (3:11) hold octaves 
D#|--------------------|------------------------|---------------------------| 
A#|--------------------|------------------------|---------------------------| 
F#|--9-----------------|--9---------12----------|--7------------------------| 
C#|--------------------|------------------------|---------------------------| 
G#|--7-----------------|--7---------10----------|--5-------3p2-----3p2------| 
D#|--------------------|------------------------|----------------3-------3--| 
    play 3x 


D#|--------------------|------------------------|---------------------------|---------------------------| 
A#|--------------------|------------------------|---------------------------|---------------------------| 
F#|--9-----------------|--9---------12----------|--7------------------------|---------------------------| 
C#|--------------------|------------------------|---------------------------|---------------------------|  
G#|--7-----------------|--7---------10----------|--5-------3p2-----3p2------|-------------3p2-----------| 
D#|--------------------|------------------------|----------------3-------3--|--3----------------3-3-5-3-| 
    play this line 2x 

D#|--------------------|------------------------|---------------------------| 
A#|--------------------|------------------------|---------------------------| 
F#|--9-----------------|--9---------12----------|--12-----------------------| hold until lyrics end 
C#|--------------------|------------------------|---------------------------| 
G#|--7-----------------|--7---------10----------|--10-----------------------| 
D#|--------------------|------------------------|---------------------------| 



Outro 

D#|---------------------------|----------------0-----0--|---------------------------| 
A#|-------------12NH----------|-------------0-----3-----|-------------12NH----------| 
F#|---------------------------|-------------------------|------------------------0--| 
C#|----12--10-------------10--|-------------------------|----12--10-----------------| 
G#|---------------------------|-------------------------|---------------------------| 
D#|-0----------------12-------|-------------------------|-0----------------12-------| 

D#|----------------0-----0--| 
A#|-------------0-----3-----| 
F#|-------------------------| 
C#|-------------------------| play 2x 
G#|-------------------------| 
D#|-------------------------| 


************************************ 

| h   Hammer-on 
| p   Pull-off 
| b   Bend 
| br  Bend release 
| pb  Pre-bend 
| /   Slide up 
| \   Slide down 
| ~   Vibrato 
| PM  Palm mute 
| NH  Natural Harmonic 

************************************ 
		  

See also:

tabs Slayer - Raining Blood tabs Slipknot - Vermilion Pt.2 tabs Avenged Sevenfold - Nightmare tabs Avenged Sevenfold - Afterlife tabs Motley Crue - Kickstart My Heart tabs Slipknot - Wait And Bleed (ver. 2)
e-chords

Other versions:

tabs Megadeth - Trust tabs Thrice - Trust tabs Adema - Trust tabs Tremonti - Trust tabs Thrice - Trust (ver. 2) tabs Thrice - Trust (ver. 3)
auto scroll beats size up size down change color hide chords drawings
tab show chords e-chords YouTube Clip e-chords hide all tabs e-chords go to top tab

share