Treble Charger

Red

Treble Charger

tabs

by  LUNO

save to print version add songbook text version e-mail correct tuner
chordsukulelecavacokeyboardtabbassdrumsharmonicaflute Guitar Pro
close

there isn't a video lesson for this song

chords

Red

	  		From: [email protected] (Paul Nazaroff) 
 
Ok, here are the chords (and some of the TAB) for treble charger's (formerly 
known as NC-17) song "Red", which appears on their independant release (the 
name of which escapes me right now) as well as CFNY 102.1's New Music Search 
1994. The TAB is not complete, and probably isn't all that accurate, so if 
anyone can add to it or fix it, I'd appreciate the help. The solo is not 
included (as I don't know it). 
 
Note: During the verse, the lead guitar is playing a random picking pattern on 
the noted chords. 
 
 
"Red" by treble charger 
++++++++++++++++++++++++ 
 
Figured out by James Nazaroff ([email protected]). 
 
Chords used:                 Legend: 
 
  G : 320003                 W: Whole note 
  D : xx0232                 H: Half note  
Am7 : x02010                 Q: Quarter note  
 Em : 022000                 E: Eighth note 
  C : x32010                 S: Sixteenth note 
 
 
Intro: G D Am7 
 
 
 
G                       D 
I saw you looking for a light, 
             Am7 
Face painted cigarette white. 
G                              D 
You asked the cleanest boy you found; 
                    Am7 
You couldn't see me turned around. 
C                                 G     D  
His fingers stretched across your empty gaze, 
Am7                      C   
But I just can't escape. 
 
<Chorus> 
 
G 
As the red fades from your wrinkled dress, 
C 
A picture of the people you've opressed, 
Em 
Hangs on a wall around here; 
Am7 
Vision starts to crawl when I'm near. 
G 
And the evening waits, 
C 
While you get caught up to your own mistakes, 
Em 
Made up of different lines, 
Am7 
I wouldn't want to see in my mind. 
 
  G         C             Em                    Am7  
e|-3---5-7-|-------------|---------------------|---------------------| 
B|---------|-5b(7)\\\\\1-|-1--1--1--1-1--------|-1--1--1--1-1--------| 
G|---------|-------------|--------------4-2-0--|--------------4-2-0--| 
D|---------|-------------|---------------------|---------------------| 
A|---------|-------------|---------------------|---------------------| 
E|---------|-------------|---------------------|---------------------| 
   H   Q Q   W             E  E  E  S S E E Q    E  E  E  S S E E Q 
 
  G         C             Em                    Am7  
e|-3---5-7-|-------------|---------------------|-------------------------| 
B|---------|-5b(7)\\\\\1-|-1--1--1--1-1--------|-1--1--1--1h3------------| 
G|---------|-------------|--------------4-2-0--|--------------3h5-3h5-3--| 
D|---------|-------------|---------------------|-------------------------| 
A|---------|-------------|---------------------|-------------------------| 
E|---------|-------------|---------------------|-------------------------| 
   H   Q Q   W             E  E  E  S S E E Q    E  E  E  S S S S S S Q 
 
 
 
G                           D  
I wondered why you'd come around, 
                 Am   
Remembering your little girl frown. 
G                              D 
Your answers kept the crowd at bay, 
                   Am  
With compliments unwilling to pay. 
C                             G      D 
I have some things I'd like to say to you, 
Am                           C 
But they just can't be true. 
 
<Chorus> 
 
G 
As the red fades from your wrinkled dress, 
C 
A picture of the people you've opressed, 
Em 
Hangs on a wall around here; 
Am7 
Vision starts to crawl when I'm near. 
G 
And the evening waits, 
C 
While you get caught up to your own mistakes, 
Em 
Made up of different lines, 
Am7 
I wouldn't want to see in my mind. 
 
 
  G         C             Em                    Am7  
e|-3---5-7-|-------------|---------------------|---------------------| 
B|---------|-5b(7)\\\\\1-|-1--1--1--1-1--------|-1--1--1--1-1--------| 
G|---------|-------------|--------------4-2-0--|--------------4-2-0--| 
D|---------|-------------|---------------------|---------------------| 
A|---------|-------------|---------------------|---------------------| 
E|---------|-------------|---------------------|---------------------| 
   H   Q Q   W             E  E  E  S S E E Q    E  E  E  S S E E Q 
 
  G         C             Em                    Am7  
e|-3---5-7-|-------------|---------------------|-------------------------| 
B|---------|-5b(7)\\\\\1-|-1--1--1--1-1--------|-1--1--1--1h3------------| 
G|---------|-------------|--------------4-2-0--|--------------3h5-3h5-3--| 
D|---------|-------------|---------------------|-------------------------| 
A|---------|-------------|---------------------|-------------------------| 
E|---------|-------------|---------------------|-------------------------| 
   H   Q Q   W             E  E  E  S S E E Q    E  E  E  S S S S S S Q 
 
 
 
 
Chords during solo: G D Am7 G D Am7 C G D Am7 C 
 
<Chorus> 
 
G 
As the red fades from your wrinkled dress, 
C 
A picture of the people you've opressed, 
Em 
Hangs on a wall around here; 
Am7 
Vision starts to crawl when I'm near. 
G 
And the evening waits, 
C 
While you get caught up to your own mistakes, 
Em 
Made up of different lines, 
Am7 
I wouldn't want to see in my mind. 
 
 
  G         C             Em                    Am7  
e|-3---5-7-|-------------|---------------------|---------------------| 
B|---------|-5b(7)\\\\\1-|-1--1--1--1-1--------|-1--1--1--1-1--------| 
G|---------|-------------|--------------4-2-0--|--------------4-2-0--| 
D|---------|-------------|---------------------|---------------------| 
A|---------|-------------|---------------------|---------------------| 
E|---------|-------------|---------------------|---------------------| 
   H   Q Q   W             E  E  E  S S E E Q    E  E  E  S S E E Q 
 
  G         C             Em                    Am7  
e|-3---5-7-|-------------|---------------------|---------------------| 
B|---------|-5b(7)\\\\\1-|-1--1--1--1-1--------|-1--1--1--1-1--------| 
G|---------|-------------|--------------4-2-0--|--------------4-2-0--| 
D|---------|-------------|---------------------|---------------------| 
A|---------|-------------|---------------------|---------------------| 
E|---------|-------------|---------------------|---------------------| 
   H   Q Q   W             E  E  E  S S E E Q    E  E  E  S S E E Q 
 
  G         C             Em                    Am7  
e|-3---5-7-|-------------|---------------------|---------------------| 
B|---------|-5b(7)\\\\\1-|-1--1--1--1-1--------|-1--1--1--1-1--------| 
G|---------|-------------|--------------4-2-0--|--------------4-2-0--| 
D|---------|-------------|---------------------|---------------------| 
A|---------|-------------|---------------------|---------------------| 
E|---------|-------------|---------------------|---------------------| 
   H   Q Q   W             E  E  E  S S E E Q    E  E  E  S S E E Q 
 
 
  G         C             Em                    Am7  
e|-3---5-7-|-7-----------|-5p3-3---------------|-------------------------| 
B|---------|-------------|--------7------------|-------------------------| 
G|---------|-------------|---------------------|-------------------------| 
D|---------|-------------|---------------------|-------------------------| 
A|---------|-------------|---------------------|-------------------------| 
E|---------|-------------|---------------------|-------------------------| 
   H   Q Q   W             S S E  E  ************************************ 
                                      (from this point on I'm lost)  
 
End on Em 
 
 
Like I said, if anyone can help, just e-mail me. 
 
-Jake- 
 
 
... It's your world you can change it. 
___ Mountain Reader II - #Demo 001 
		  

Full key step upFull key step up
Half key step upHalf key step up
Half key step downHalf key step down
Full key step downFull key step down
hide glossary

See also:

tabs Avril Lavigne - Too Much To Ask tabs Alanis Morissette - Unsent tabs Avril Lavigne - Don't Tell Me (intro) tabs Three Days Grace - Burn tabs Rush - Roll The Bones tabs Nickelback - Because of You
e-chords

Other versions:

tabs Treble Charger - Red tabs Violetine - Red tabs Celia Pavey - Red tabs Bosnian Rainbows - Red tabs Catfish And The Bottlemen - Red tabs Taylor Swift - Red (live)
auto scroll beats size up size down change color hide chords drawings
tab show chords e-chords YouTube Clip e-chords hide all tabs e-chords go to top tab

share