Treble Charger

How She Died

Treble Charger

tabs

by  LUNO

save to print version add songbook text version e-mail correct tuner
chordsukulelecavacokeyboardtabbassdrumsharmonicaflute Guitar Pro
close

there isn't a video lesson for this song

chords

How She Died

	  		[email protected] 
 
Intro 
 
E-----0-0-1-1-0-0-3-3-3-3--------- 
B-----1-1-1-1-1-1-3-3-3-3--------- 
G-----0-0-0-0-0-0-0-0-0-0-2-2-2-2- 
D-----2-2-3-3-2-2-0-0-0-0-3-3-3-3- 
A-3-3-3-3-3-3-3-3-2-2-2-2-3-3-3-3- 
E-----------------3-3-3-3-1-1-1-1- 
 
Intro Solo 
 
E-----8------------------------ 
B--------8b-r-6-8-------------- 
G-10b--------------9-10-9-7---- 
D---------------------------10- 
A------------------------------ 
E------------------------------ 
 
Verse 
C5 F5 Ab5 
 
Pre-Chorus
Eb5 *fdk.* Eb5 
 
Chorus 
Bb5 Ab5 Eb5   3x's 
Bb5 Ab5 G5 
 
Pre-2nd verse 
 
E---------------------4----------------------- 
B-----------------------------------------8b-- 
G-3b-r------------5-4---4--3b-r-----------10b- 
D------5------------------------5------------- 
A--------4-3----------------------4-3--------- 
E------------4-3----------------------4-3----- 
 
Bridge 
Ab5 Eb5 Bb5 
Bb5 Eb5 Bb5 
Ab5 Eb5 Bb5 
Ab5 
 
Solo 
 
E-bend to unison a bunch x's-------------------------------------------- 
B-8---13---------------------9---8---6--4---12-15-12-13-12-------------- 
G-10b-15b--------------------11b-10b-8b-6b-----------------14-12--14-12- 
D----------------------------------------------------------------------- 
A----------------------------------------------------------------------- 
E----------------------------------------------------------------------- 
 
E-------------------------------------------------------------------- 
B----------------------15--blah blah blah-12-13---------------------- 
G----------------------17b----------------------12-13-12------------- 
D--15-13--12h13------------------------------------------15-13-12-13- 
A---------------10h11------------------------------------------------ 
E-------------------------------------------------------------------- 
 
E-------------------- 
B-------------------- 
G-------------------- 
D-13b-r-b-r-b-r-etc.- 
A-------------------- 
E-------------------- 
 
Whoop de doo. 
		  

Full key step upFull key step up
Half key step upHalf key step up
Half key step downHalf key step down
Full key step downFull key step down
hide glossary

See also:

tabs Avril Lavigne - Too Much To Ask tabs Alanis Morissette - Unsent tabs Avril Lavigne - Don't Tell Me (intro) tabs Three Days Grace - Burn tabs Rush - Roll The Bones tabs Nickelback - Because of You
e-chords

Other versions:

tabs Treble Charger - How She Died
auto scroll beats size up size down change color hide chords drawings
tab show chords e-chords YouTube Clip e-chords hide all tabs e-chords go to top tab

share