Trazendo a Arca

home > Trazendo a Arca

Dizem Tab

Trazendo a Arca

Difficulty: BeginnerBeginner

by joaoewerton

tuner correct add songbook print version text version save to e-mail
chordsukulelecavacokeyboardtabbassdrumsharmonicsflute Guitar Pro
chords

Dizem

  		E|-----------------------------------3/5---------7-8--5/7-------------- 
B|------------5-5/7--7-7-7--5------------8h10-------------8------------ 
G|----------4----------------------------------------------7----------- 
D|---2-4-5------------------------------------------------------------- 
A|--------------------------------------------------------------------- 
E|--------------------------------------------------------------------- 

E|------10/12---------------------------------------------------------- 
B|--------------10h12p10\8-10------------------------------------------ 
G|---9------------------------------9---------------------------------- 
D|-------------------------------------7h9p7\5-7----------------------- 
A|--------------------------------------------------------------------- 
E|--------------------------------------------------------------------- 

E|-------7-8-10--7-8-----7--------------------------------------------- 
B|---10---------------10----8-10--7-8---7------------------------------ 
G|----------------------------------------9---7\4---------------------- 
D|--------------------------------------------------------------------- 
A|--------------------------------------------------------------------- 
E|--------------------------------------------------------------------- 

E|--------------------------------------------------------------------- 
B|--------------------------------------------------------------------- 
G|------4h5p4---------------------------------------------------------- 
D|---7---------7-5----5--4h5p4----------------------------------------- 
A|------------------7-------------------------------------------------- 
E|--------------------------------------------------------------------- 
	  

Search Paypal
auto scroll beats size up size down change color hide chords drawings
tab show chords e-chords YouTube Clip e-chords hide all tabs e-chords go to top tab