Transplants

Weigh On My Mind

Transplants

tabs

save to print version add songbook text version e-mail correct tuner
chordsukulelecavacokeyboardtabbassdrumsharmonicaflute Guitar Pro
close

there isn't a video lesson for this song

chords

Weigh On My Mind

	  		Intro Guitar 1 
e-7--5-----------7--5---------- 
b-8--5-----------8--5---------- 
g-7--6-----------7--6---------- 
d----7--------------7---------- 
a------------------------------ 
E------------------------------ 
Intro Guitar 2 
e------------------------------ 
b------------------------------ 
g------------------------------ 
d------7h8p7-5---------7h8p7-5- 
a------------------------------ 
E------------------------------ 
Chorus  about 4x 
e---------------------------------------- 
b---------------------------------------- 
g---------------------------------------- 
d-555555-777777-101010101010101010101010- 
a-555555-777777-101010101010101010101010- 
E-333333-555555-8-8-8-8-8-8-8-8-8-8-8-8-- 
 
Verse   2x     |   Clean no distortion    
               |        2x 
               |     
e--------------|-3~--5~--8-~-- 
b--------------|-3~--5~--8-~-- 
g--------------|-4~--6~--9-~-- 
d--------------|-5~--7~--10~-- 
a----------5~--|-5~--7~--10~-- 
E-5~---7~------|-------------- 
 

		  

See also:

tabs Ramones - Blitzkrieg Bop tabs Goo Goo Dolls - Name tabs Green Day - Brain Stew tabs Goo Goo Dolls - Iris (Acoustic) tabs Green Day - Boulevard of brocken dreams tabs Green Day - Minority
e-chords

Other versions:

tabs Transplants - Weigh On My Mind
auto scroll beats size up size down change color hide chords drawings
tab show chords e-chords YouTube Clip e-chords hide all tabs e-chords go to top tab

share