Transit

Long Lost Friends

Transit

tabs

by  TERR_SCHMITZ

save to print version add songbook text version e-mail correct tuner
chordsukulelecavacokeyboardtabbassdrumsharmonicaflute Guitar Pro
close

there isn't a video lesson for this song

chords

Long Lost Friends

	  		
Intro:Lead 
  
 e|----------14---11-------------------------------14---11--------------------| 
 B|---------------------------------------------------------------------------| 
 G|---4-4-4------------4-4-1-1-4-4-6-------4-4-4------------4-4-6-6-8-8-10----|x2 
 D|---------------------------------------------------------------------------| 
 A|---------------------------------------------------------------------------| 
 D|---------------------------------------------------------------------------| 

 e|-----------| 
 B|-----------| 
 G|-----------| 
 D|---4-------|x2 
 A|---2-x32---| 
 D|---2-------| 


Verse:How long 
  
 e|--------------------------------| 
 B|-------------------2--5--2------| 
 G|--------------------------------| 
 D|---4----------------------------| 
 A|---2----------------------------| 
 D|---2----------------------------| 

Pre chorus:Go on!!! 
 e|------------------------------------------------------------------------| 
 B|------------------------------------------------------------------------| 
 G|--4-4-4-6-6-6-8-8-x6---4-4-4-6-6-6-8-8-11-11-11-11-11-11-11-11----------| 
 D|------------------------------------------------------------------------| 
 A|------------------------------------------------------------------------| 
 D|------------------------------------------------------------------------| 

 e|-----------| 
 B|-----------| 
 G|-----------| 
 D|---4-------| 
 A|---2-x64---| 
 D|---2-------| 
  
chorus:Lately you've been looking at me like you've seen a ghost  

 e|--------------------------------------------| 
 B|--------------------------------------------| 
 G|--------------------------------------------| 
 D|--2------------6-----------4----------------|x4 
 A|--2-x8---------6-x8--------4-x16------------| 
 D|--2------------6-----------4----------------| 

  
 e|----------14---11-------------------------------14---11--------------------| 
 B|---------------------------------------------------------------------------| 
 G|---4-4-4------------4-4-1-1-4-4-6-------4-4-4------------4-4-6-6-8-8-10----| 
 D|---------------------------------------------------------------------------| 
 A|---------------------------------------------------------------------------| 
 D|---------------------------------------------------------------------------| 

 e|-----------| 
 B|-----------| 
 G|-----------| 
 D|---4-------| 
 A|---2-x16---| 
 D|---2-------| 

Verse 2:mostly when you mattered most 

 e|--------------------------------| 
 B|-------------------2--5--2------| 
 G|--------------------------------| 
 D|---4----------------------------| 
 A|---2----------------------------| 
 D|---2----------------------------| 
  

Pre chorus:Go on!!! 
 e|------------------------------------------------------------------------| 
 B|------------------------------------------------------------------------| 
 G|--4-4-4-6-6-6-8-8-x6---4-4-4-6-6-6-8-8-11-11-11-11-11-11-11-11----------| 
 D|------------------------------------------------------------------------| 
 A|------------------------------------------------------------------------| 
 D|------------------------------------------------------------------------| 

 e|-----------| 
 B|-----------| 
 G|-----------| 
 D|---4-------| 
 A|---2-x64---| 
 D|---2-------| 
  
chorus:Lately you've been looking at me like you've seen a ghost  
  
 e|--------------------------------------------| 
 B|--------------------------------------------| 
 G|--------------------------------------------| 
 D|--2------------6-----------4----------------|x4 
 A|--2-x8---------6-x8--------4-x16------------| 
 D|--2------------6-----------4----------------| 

Bridge:in my dreams 

 e|-----------| 
 B|-----------| 
 G|-----------| 
 D|---4-------| 
 A|---2-------| 
 D|---2-------| 

 e|----------------------------------------------| 
 B|----------------------------------------------| 
 G|-----------------------8-8-8--6--8--9---------| 
 D|----4-4-4--6--8--9-----8-8-8--6--8--9---------|x2 
 A|----4-4-4--6--8--9-----6-6-6--4--6--9---------| 
 D|----4-4-4--6--8--9----------------------------| 

chorus:Lately you've been looking at me like you've seen a ghost  

 e|--------------------------------------------| 
 B|--------------------------------------------| 
 G|--------------------------------------------| 
 D|--2------------6-----------4----------------|x4 
 A|--2-x8---------6-x8--------4-x16------------| 
 D|--2------------6-----------4----------------| 

outro 

 e|----------------------| 
 B|----------------------| 
 G|----------------------| 
 D|-------4-----4--------| 
 A|-----2-----2----------| 
 D|---2-----2------------| 
		  

See also:

tabs Aerosmith - Dream On tabs Guns N' Roses - Live and Let Die tabs The Doors - People Are Strange tabs Cheap Trick - The Flame tabs Creed - With arms wide open tabs Van Halen - Pretty Woman
e-chords

Other versions:

tabs Transit - Long Lost Friends
auto scroll beats size up size down change color hide chords drawings
tab show chords e-chords YouTube Clip e-chords hide all tabs e-chords go to top tab

share