Tranquility

Try Again

Tranquility

tabs

by  RENEJUNIOR

save to print version add songbook text version e-mail correct tuner
chordsukulelecavacokeyboardtabbassdrumsharmonicaflute Guitar Pro
close

there isn't a video lesson for this song

chords

Try Again

	  		 

Tuning: EADG 

G|----------------------------------------------------------------| 
D|----------------------------------------------------------------| 
A|5---------------------------5---5-------------------5---5-------| 
E|----------------------------------------------------------------| 

G|----------------------------------------------------------------| 
D|--------------------------------------------2-------3-------4---| 
A|3-----------3---3-----------3---3-------------------------------| 
E|----------------------------------------------------------------| 

G|----------------------------------------------------------------| 
D|5-----------5---5-----------5---3h5---------5---5-------5-------| 
A|----------------------------------------------------5-----------| 
E|----------------------------------------------------------------| 

G|----------------------------------------------------------------| 
D|3-----------3---3-----------3---------------3-------------------| 
A|------------------------------------------------3---------------| 
E|----------------------------------------------------------------| 

G|----------------------------------------------------------------| 
D|----------------------------------------------------------------| 
A|0---------------------------------------------------------------| 
E|----------------------------------------------------------------| 

0:20 

G|----------------------------------------------------------------| 
D|3-----------3---3---------------3-----------3---3-------3---2---| 
A|----------------------------3-----------------------------------| 
E|----------------------------------------------------------------| 

G|----------------------------------------------------------------| 
D|----------------------------------------------------------------| 
A|3-----------3---3---------------3-------3-----------3---3-------| 
E|----------------------------3-------3---------------------------| 

G|----------------------------------------------------------------| 
D|----------------------------------------------------------------| 
A|------------------------------------------------------------2---| 
E|3-----------3---3-----------3---3-----------3---3-------3-------| 

G|----------------------------------------------------------------| 
D|----------------------------------------------------------------| 
A|0-----------0---0---------------0-----------0---0-------0---3---| 
E|------------------------0---3-----------------------------------| 

0:33 

G|----------------------------------------------------------------| 
D|3-----------3---3---------------3-----------3---3-------3-------| 
A|----------------------------3-----------------------------------| 
E|----------------------------------------------------------------| 

G|----------------------------------------------------------------| 
D|2---------------------------------------------------------------| 
A|--------3-------3---------------3-----------3---3-------3-------| 
E|----------------------------3-----------------------------------| 

G|----------------------------------------------------------------| 
D|----------------------------------------------------------------| 
A|----------------------------5-----------------------------------| 
E|3-----------3---3---------------3-----------3---3-------3---4---| 

G|----------------------------------------------------------------| 
D|----------------------------------------------------------------| 
A|0-----------0---0---------------0-----------0---0-------0-------| 
E|------------------------3---4-----------------------------------| 

0:47 

G|----------------------------------------------------------------| 
D|3-----------3---3---------------3-----------3---3-------3-------| 
A|----------------------------3-----------------------------------| 
E|----------------------------------------------------------------| 

G|----------------------------------------------------------------| 
D|----------------------------------------------------------------| 
A|0-----------0---0-----------0---0-----------0---0-------0-------| 
E|----------------------------------------------------------------| 

G|----------------------------------------------------------------| 
D|----------------------------------------------------------------| 
A|5-----------5---5-----------5---5-----------5---5-------5-------| 
E|----------------------------------------------------------------| 

G|----------------------------------------------------------------| 
D|3-----------3---3-------3---4---5-----------5---5---------------| 
A|--------------------5---------------------------------------3---| 
E|----------------------------------------------------------------| 

1:00 

G|----------------------------------------------------------------| 
D|----------------------------------------------------------------| 
A|5-----------0---5-----------5---5-----------5---5-------5-------| 
E|----------------------------------------------------------------| 

G|----------------------------------------------------------------| 
D|----------------------------5-----------------------------------| 
A|3-----------3---3---------------3-----------3-------3---3---5---| 
E|----------------------------------------------------------------| 

G|----------------------------------------------------------------| 
D|----------------------------------------------------------------|. 
A|----------------------------------------------------------------| 
E|3-----------3-------3---3---2---3-----------3---3-------3-------| 

G|----------------------------------------------------------------| 
D|----------------------------------------------------------------| 
A|------------0---3-------5-------3-------------------3-----------| 
E|1---------------------------------------1---------------1-------| 

1:13 

G|----------------------------------------------------------------| 
D|----------------------------------------------------3-----------| 
A|5-----------5---5-----------5---5-----------5---5-------5---4---| 
E|----------------------------------------------------------------| 

G|----------------------------------------------------------------| 
D|----------------------------------------------------------------| 
A|3-----------3---3---------------3-----------3---3-----------3---| 
E|----------------------------3-----------------------------------| 

G|----------------------------------------------------------------| 
D|--------------------------------5-------------------------------| 
A|----------------------------5-----------------------------------| 
E|3-----------3---3---------------------------3---3---------------| 

G|----------------------------------------------------------------| 
D|3-----------3---3---------------3---------------3---------------| 
A|----------------------------3---------------------------3---4---| 
E|----------------------------------------------------------------| 

G|----------------------------------------------------------------| 
D|----------------------------------------------------------------| 
A|5-----------5---5-----------0---5-----------5---5-------5---3---| 
E|----------------------------------------------------------------| 

G|----------------------------------------------------------------| 
D|----------------------------------------------------------------| x2 
A|0---------------------------------------------------------------| 
E|----------------------------------------------------------------| 

1:37 

G|----------------------------------------------------------------| 
D|3-----------3---3-----------3---3-----------3-------3---3-------| 
A|----------------------------------------------------------------| 
E|----------------------------------------------------------------| 

G|----------------------------------------------------------------| 
D|----------------------------------------------------------------| 
A|3-----------3---3---------------3-----------3-------3---4---5---| 
E|----------------------------3-----------------------------------| 

G|----------------------------------------------------------------| 
D|--------------------------------5-------------------------------| 
A|----------------------------5-------------------5---------------| 
E|3-----------3---3---------------------------3-----------3-------| 

G|----------------------------------------------------------------| 
D|----------------------------------------------------------------| 
A|0-----------0---0---------------0-----------0---0-------0---3---| 
E|------------------------0---3-----------------------------------| 

1:50 

G|----------------------------------------------------------------| 
D|3-----------3---3-----------3-------3-------3-------3---3---2---| 
A|----------------------------------------------------------------| 
E|----------------------------------------------------------------| 

G|----------------------------------------------------------------| 
D|----------------------------------------------------------------| 
A|3-----------3---3-----------3-------3-------3-------3---3---2---| 
E|----------------------------------------------------------------| 

G|----------------------------------------------------------------| 
D|----------------------------------------------------------------| 
A|------------------------------------------------------------2---| 
E|3-----------3---3-----------2---3-----------3---3-------3-------| 

G|----------------------------------------------------------------| 
D|----------------------------------------------------------------| 
A|0-----------0---0---------------0-------------------0---3-------| 
E|------------------------0---3-----------------------------------| 

2:04 

G|----------------------------------------------------------------| 
D|3-----------3---3---------------3-----------3-----------3-------| 
A|----------------------------3-----------------------3-------2---| 
E|----------------------------------------------------------------| 

G|----------------------------------------------------------------| 
D|----------------------------------------------------------------| 
A|0-----------0---0---------------0-----------0-------2---3---4---| 
E|----------------------------------------------------------------| 

G|----------------------------------------------------------------| 
D|----------------------------------------------------------------| 
A|5-----------5---5-----------5---5-----------5-------5---5-------| 
E|----------------------------------------------------------------| 

G|----------------------------------------------------------------| 
D|3---------------3-------3---4---5-----------5---5---3---5-------| 
A|------------5-------5---------------------------------------3---| 
E|----------------------------------------------------------------| 

2:17 

G|----------------------------------------------------------------| 
D|------------------------------------5-------3-------------------| 
A|5---------------------------------------------------5---4-------| 
E|----------------------------------------------------------------| 

G|----------------------------------------------------------------| 
D|----------------------------------------------------------------| 
A|3-----------3---3---------------3-------------------------------| 
E|----------------------------3-----------------------0---2-------| 

G|----------------------------------------------------------------| 
D|----------------------------------------------------------------| 
A|----------------------------5-----------------------0-----------| 
E|3-----------3---3---------------3-----------3---3-------3-------| 

G|----------------------------------------------------------------| 
D|----------------------------------------------------------------| 
A|----------------3-----------3-------------------0-------3-------| 
E|1-----------1-------------------1-----------1-------------------| 

2:30 

G|----------------------------------------------------------------| 
D|----------------------------3---------------3-------------------| 
A|5-----------5---5---------------5-------------------5---5-------| 
E|----------------------------------------------------------------| 

G|----------------------------------------------------------------| 
D|----------------------------------------------------------------| 
A|3-----------3---3-----------3-----------------------------------| 
E|------------------------------------0-------0---1-------2-------| 

G|----------------------------------------------------------------| 
D|----------------------------------------------------------------| 
A|----------------------------------------------------------------| 
E|3-----------3---3---------------3-----------3---3-------3-------| 

G|----------------------------------------------------------------| 
D|----------------------------------------------------------------| 
A|----------------3-----------3-------3-----------3-----------3---| 
E|1-----------1-------------------1-------1---------------1-------| 

G|----------------------------------------------------------------| 
D|----------------------------------------------------------------| 
A|5-----------5---5-----------0---5-----------5---5-------3-------| 
E|----------------------------------------------------------------| 

G|----------------------------------------------------------------| 
D|----------------------------------------------------------------| x2 
A|0---------------------------------------------------------------| 
E|----------------------------------------------------------------| 

2:54 

G|----------------------------------------------------------------| 
D|----------------------------------------------------------------| x4 
A|0---------------------------------------------------------------| 
E|----------------------------------------------------------------| 

3:07 

G|----------------------------------------------------------------| 
D|----------------------------------------------------------------| 
A|0---------------------------------------------------0---0-------| 
E|----------------------------------------------------------------| 

G|----------------------------------------------------------------| 
D|----------------------------------------------------------------| 
A|0---------------------------------------------------0---0-------| 
E|------------------------------------------------------------4---| 

G|----------------------------------------------------------------| 
D|----------------------------------------------------------------| 
A|0-----------------------------------------------------------0---| 
E|----------------------------------------------------------------| 

G|----------------------------------------------------------------| 
D|----------------------------------------------------------------| 
A|0---------------------------------------------------0---0-------| 
E|----------------------------------------------------------------| 

3:21 

G|----------------------------------------------------------------| 
D|----------------------------------------------------------------| 
A|0-----------0-------0-------0-------0-------0-------0---0-------| 
E|------------------------------------------------------------0---| 

G|----------------------------------------------------------------| 
D|----------------------------------------------------------------| 
A|0-----------0-------0-------0-------0-------0-------0-----------| 
E|--------------------------------------------------------0---3---| 

G|----------------------------------------------------------------| 
D|----------------------------------------------------------------| x6 
A|0-----------0-------0-------0-------0-------0-------0-----------| 
E|--------------------------------------------------------0---3---| 

3:45 

G|----------------------------------------------------------------| 
D|----------------------------------------------------------------| 
A|0-----------0---0-----------0-------0---0-----------0---0-------| 
E|------------------------------------------------------------0---| 

G|----------------------------------------------------------------| 
D|----------------------------------------------------------------| x2 
A|0-----------0---0-----------0-------0---0-----------------------| 
E|----------------------------------------------------0---3---4---| 

G|----------------------------------------------------------------| 
D|----------------------------------------------------------------| 
A|0-----------0---0-----------0-------0---0-----------0-----------| 
E|--------------------------------------------------------3-------| 

4:01 

G|----------------------------------------------------------------| 
D|----------------------------------------------------------------| 
A|----------------------------------------------------------------| 
E|1-----------1---1-----------1---1-----------1---1-------1---3---| 

G|----------------------------------------------------------------| 
D|----------------------------------------------------------------| 
A|0-----------0---0---------------0-----------0---0-------0---3---| 
E|------------------------0---3-----------------------------------| 

G|----------------------------------------------------------------| 
D|----------------------------------------------------------------| 
A|5-----------5---5-----------0---5-----------5---5-------0---3---| 
E|----------------------------------------------------------------| 

G|----------------------------------------------------------------| 
D|----------------------------------------------------------------| 
A|5-----------5-------0---3-------5---5---5-----------0---5---0---| 
E|------------------------------------------------3---------------| 

4:15 

G|----------------------------------------------------------------| 
D|----------------------------------------------------------------| x2 
A|5-----------5-----------0---3---5---5---5-----------0---5---0---| 
E|--------------------3---------------------------3---------------| 

G|--------------------------------------------------------------------| 
D|----------------------------------------------------------------3---| 
A|5-----------5-------5-------0---5---5---5-------5-------5-----------| 
E|------------------------3-------------------------------------------| 
		  

auto scroll beats size up size down change color hide chords drawings
tab show chords e-chords YouTube Clip e-chords hide all tabs e-chords go to top tab

share