Tragically Hip

home > Tragically Hip

Fifty Mission Cap Tab

Tragically Hip

Difficulty: nolevelnolevel

by PAULLET3

tuner correct add songbook print version text version save to e-mail
chordsukulelecavacokeyboardtabbassdrumsharmonicsflute Guitar Pro
chords

Fifty Mission Cap

  		"Bill Barilko...disappeared.........that summer....." 
"He was on.....a fishing.......trip" 
|------------------------------------------------------------| 
|------------------------------------------------------------| 
|--9---------9-7---------7-5---------5-7---------7-9---------| 
|--9---------9-7---------7-5---------5-7---------7-9---------| 
|--7---------7-5---------5-3---------3-5---------5-7---------| 
|----0-0-0-0-----0-0-0-0-----0-0-0-0-----0-0-0-0-----0-0-0-0-| 

"The last goal....he ever scored....won the leafs the cup" 
|----------------------------------------------------| 
|----------------------------------------------------| 
|--5---------5-7---------7-9---------9-7---------7-9-| 
|--5---------5-7---------7-7---------7-7---------7-9-| 
|----0-0-0-0-----0-0-0-0-----0-0-0-0-----0-0-0-0---7-| 
|----------------------------------------------------| 

|---------------------------------------------------------| 
|---------------------------------------------------------| 
|---------9-7---------7-5---------5-7---------7-9---------| 
|---------9-7---------7-5---------5-7---------7-9---------| 
|---------7-5---------5-3---------3-5---------5-7---------| 
|-0-0-0-0-----0-0-0-0-----0-0-0-0-----0-0-0-0-----0-0-0-0-| 

"They didn't win another, til 1962, the year he was discovered" 

|----------------------------------------------------| 
|----------------------------------------------------| 
|--5---------5-7---------7-9---------9-7---------7-9-| 
|--5---------5-7---------7-7---------7-7---------7-9-| 
|----0-0-0-0-----0-0-0-0-----0-0-0-0-----0-0-0-0---7-| 
|----------------------------------------------------| 

|---------------------------------------------------------| 
|---------------------------------------------------------| 
|---------9-7---------7-5---------5-7---------7-9---------| 
|---------9-7---------7-5---------5-7---------7-9---------| 
|---------7-5---------5-3---------3-5---------5-7---------| 
|-0-0-0-0-----0-0-0-0-----0-0-0-0-----0-0-0-0-----0-0-0-0-| 

"I stole this from a hockey card, I keep tucked up under" 

|--------------------------------3-3-2-2-| 
|--------------------------------3-3-3-3-| 
|--5---------5-7--------7--------0-0-2-2-| 
|--5---------5-7--------7--------0-0-----| 
|----0-0-0-0-----0-0-0-0---------2-2-----| 
|--------------------------------3-3-----| 

"My fifty mission cap" 

|---------------------------------| 
|---------------------------------| 
|--11-11\-9-9-9-9-9-9---4-2-2-2-2-| 
|--11-11\-9-9-9-9-9-9---4-2-2-2-2-| 
|--9--9-\-7-7-7-7-7-7---2-0-0-0-0-| 
|---------------------------------| 

"I worked it in" 
"I worked it in to look like that" 

|---------------------------------| 
|---------------------------------| 
|--11-11\-9-9-9-9-9-9---4-2-2-2-2-| 
|--11-11\-9-9-9-9-9-9---4-2-2-2-2-| 
|--9--9-\-7-7-7-7-7-7---2-0-0-0-0-| 
|---------------------------------| 

"I worked it in, I worked it in to look like that" 

|----------------| 
|----------------| 
|--4-4-4-2-2-2-2-| 
|--4-4-4-2-2-2-2-| 
|--2-2-2-0-0-0-0-| 
|----------------| 

"I worked it in, to look like that" 
|--------------------------| 
|--------------------------| 
|--4-4-4-7-7-7-7-9---------| 
|--4-4-4-7-7-7-7-9---------| 
|--2-2-2-5-5-5-5-7---------| 
|------------------0-0-0-0-|  back to opening riff 


Bill Barilko disapeared, that summer, (1959) 
he was on a fishing trip,(in a plane) 
The last goal he ever scored, (in overtime) 
won the Leafs the cup, 
they didn't win another, 
'till 1962, the year he was discovered, 
	  

Search Paypal
auto scroll beats size up size down change color hide chords drawings
tab show chords e-chords YouTube Clip e-chords hide all tabs e-chords go to top tab