Traditional Irish

Molly Malone

Traditional Irish

tabs

by  TARIKIKE

save to print version add songbook text version e-mail correct tuner
chordsukulelecavacokeyboardtabbassdrumsharmonicaflute Guitar Pro
close

there isn't a video lesson for this song

chords

Molly Malone

	  		

Tuning: Standard 

E|---|-------|-------|-------|-------|-------|-------|-------|-------| 
B|---|-------|---0---|-------|---1---|-3-0---|-3-1-0-|-0-----|-------| 
G|---|-0-0-0-|-0--0-0|-2-2-2-|-2---0-|-----2-|-------|---2-0-|-2-----| 
D|-0-|-------|-------|-------|-------|-------|-------|-------|---0-0-| 
A|---|-------|-------|-------|-------|-------|-------|-------|-------| 
E|---|-------|-------|-------|-------|-------|-------|-------|-------| 

E|-------|---------|-------|---------|-------|-------|-------|-----| 
B|-------|---0-----|-------|---1-0---|-3-0---|-3-0---|-------|-----| 
G|-0-0-0-|-0---0---|-2-2-2-|-2-----2-|-----0-|-----0-|-2-0-2-|-0---| 
D|-------|---------|-------|---------|-------|-------|-------|-----| 
A|-------|---------|-------|---------|-------|-------|-------|-----| 
E|-------|---------|-------|---------|-------|-------|-------|-----| 

E|---------|-------|---------|---------|-------|-------|-------|---| 
B|---------|---0---|---------|---1-0---|-3-0---|-3-0---|-------|---| 
G|---0-0-0-|-0---0-|-2--2--2-|-2-----2-|-----0-|-----0-|-2-0-2-|-0-| 
D|-0-------|-------|---------|---------|-------|-------|-------|---| 
A|---------|-------|---------|---------|-------|-------|-------|---| 
E|---------|-------|---------|---------|-------|-------|-------|---| 


************************************ 
		  

See also:

tabs Thin Lizzy - Are You Ready (Live) tabs U2 - Walk To The Water tabs U2 - sunday boody sunday tabs U2 - The fly(ver.2) tabs U2 - Holde me, Thrill me, Kiss me, Kill me tabs U2 - Please (live acoustic)
e-chords

Other versions:

tabs Traditional Irish - Molly Malone
auto scroll beats size up size down change color hide chords drawings
tab show chords e-chords YouTube Clip e-chords hide all tabs e-chords go to top tab

share